Log in

One click and you are in

Login with Facebook Login with Google

Why sign up and log in

Guitar Tabs Explorer
Marika Hackman guitar tabs for Retina television acoustic

Guitar tabs with lyrics

From the acoustic Northeast tunnel version of the song
http://www.youtube.com/watch v=FU0aa5hDWMA

I only put strumming in the intro. It's pretty straight forward.
I put the tapping on the A chord diagramE MajorE string so it's easier to see the beat.

Legend

h - hammer-on
p - pull-off
v - down stroke (thumb)
^ - up stroke (pull up across the strings with index or middle finger)
t - tap body of guitar with right hand

CAPO 1
intro
  v v v ^   v ^     v v ^           v v ^   v ^     v v ^
E------------------------------------------------------------------|
B------------------------------------------------------------------|
G-------0-----2---------0---------------0-----0h2-------0----------|
D-------0-----0---------2---------------0-----0---------2----------|
A------------------------------------------------------------------|
E-0-2-3---t-2-----t-2-0---t-------t-0-3---t-2-----t-2-0---t-------t|

E----------------------------------------------------------------|
B----------------------------------------------------------------|
G-----0---0---2-------0---------------0-------2-------0----------|
D-----0---0---0-------2---------------0-------0-------2----------|
A----------------------------------------------------------------|
E-0-3---t-3-2---t-2-0---t-------t-0-3---t-3-2---t-2-0---t-------t|

Pupils as deep as wells        Letting the world pour in

E--------------------------------------------------------------------------------|
B-----0--------------------------------------------------------------------------|
G-----0-------2-------0---------------0-------2-------0--------------------------|
D-----0-------0-------2---------------0-------0-------2--------------------------|
A--------------------------------------------------------------------------------|
E-0-3---t-3-2---t-2-0---t-------t-0-3---t-3-2---t-2-0---t-------t-------t-------t|

Save it for when you're bored   Retina television.

E----------------------------------------------------------------|
B----------------------------------------------------------------|
G-----0-------2-------0---------------0---0---2-------0----------|
D-----0-------0-------2---------------0---0---0-------2----------|
A----------------------------------------------------------------|
E---3---t-3-2---t-2-0---t-------t-0-3---t-3-2---t-2-0---t-------t|

Pupils as black as crows       Soaking up all the light

E----------------------------------------------------------------|
B----------------------------------------------------------------|
G-----0-------2-------0---------------0-------2-------0----------|
D-----0-------0-------2---------------0-------0-------2----------|
A----------------------------------------------------------------|
E-0-3---t-3-2---t-2-0---t-------t-0-3---t-3-2---t-2-0---t-------t|

Burning when it gets dark       Torches when it is dark.

E--------------------------------------------------------|
B---1---------1p0----------------------------------------|
G---0---------0-----0---------0--------------------------|  X2
D-------------------0---------2--------------------------|
A---3---------3------------------------------------------|
E-------t-------t---3---t-3-0---t-------t-------t-------t|

Fall in the morning, I fall in the morning
A chord diagramA augmentedA woooooaaaaahhooo, a wooooaaahooooorning

E----------------------------------------------------------------|
B----------------------------------------------------------------|
G-----0-------2-------0---------------0-------2-------0----------|
D-----0-------0-------2---------------0-------0-------2----------|
A----------------------------------------------------------------|
E---3---t-3-2---t-2-0---t-------t-0-3---t-3-2---t-2-0---t-------t|

To the spider that's hanging down  Pick them off one by one

E----------------------------------------------------------------|
B----------------------------------------------------------------|
G-----0-------2-------0---------------0-------2-------0----------|
D-----0-------0-------2---------------0-------0-------2----------|
A----------------------------------------------------------------|
E-0-3---t-3-2---t-2-0---t-------t-0-3---t-3-2---t-2-0---t-------t|

You do not want to help.       You did not mean to help.

E--------------------------------------------------------|
B---1---------1p0----------------------------------------|
G---0---------0-----0---------0--------------------------|  X2
D-------------------0---------2--------------------------|
A---3---------3------------------------------------------|
E-------t-------t---3---t-3-0---t-------t-------t-------t|

By the look on your face, the look on your face
The look on your face, the look on your face

E----------------------------------------|
B---1---------1p0------------------------|
G---0---------0---0-0---------0----------|
D-------------------0---------2----------|
A---3---------3--------------------------|
E-------t-------t---3---t-3-0---t-------t|

And I've fallen from grace, I've fallen for grace,

E----------------------------------------------------------------|
B-------------------1-------------------------------1---------1p0|
G-----2-------------0---------0-------2-------------0---------0--|
D-----3-----------------------0-------3--------------------------|
A-------------------3-------------------------------3---------3--|
E-0-1---t-------t-------t-0-3---t-0-1---t-------t-------t-------t|

Hold me in your arms and tell me I'm ok,

E----------------------------------------|
B----------------------------------------|
G---0---------0--------------------------|
D---0---------2--------------------------|
A----------------------------------------|
E---3---t-3-0---t-------t-------t-------t|

ok

E----------------------------------------------------------------|
B----------------------------------------------------------------|
G---0-------2-------0---------------0-------2---------0----------|
D---0-------0-------2---------------0-------0---------2----------|
A----------------------------------------------------------------|
E---3---t-3-2---t---0---t-------t---3---t-3-2---t-2-0---t-------t|

Pupils as deep as wells         Letting the world pour in

E----------------------------------------------------------------|
B----------------------------------------------------------------|
G-----0-------2-------0---------------0-------2-------0----------|
D-----0-------0-------2---------------0-------0-------2----------|
A----------------------------------------------------------------|
E-0-3---t-3-2---t-2-0---t-------t-0-3---t-3-2---t-2-0---t-----t-t|

Save it for when you're bored.  Retina television.

THE END

ty

Other versions of Retina Television Acoustic

Retina televisionTabs

Almost there ...

Sign in to get your own page with links to favourite songs and more. You are just one click away...

Login with Facebook Login with Google