Log in

One click and you are in

Login with Facebook Login with Google

Why sign up and log in

Guitar Tabs Explorer
Marika Hackman bass tabs for All night

Bass tabs

Tuning: Standard (E A D G)

Difficulty: Novice


Verse 1 - 0.23:
"'cause our mouths are just for eating..."
G|---------------------------------------------------|
D|----------------------------5----------------------|
A|-1--0-1------------3--3-5-3----1--0-1--------------|
E|--------1--1-0-1-3--------------------1--1-0-1-3~--|

Chorus 1 - 0.43:
"All night..."
G|-----------------------------------------------------------------------|
D|-----------------------------------------------------------------------|
A|-5-5-5-5-5-5-5-5-5-5-5-7-7-7-9-9-10-10-10-10-10-10-10-10-10-3-3-3-0-3--| x2
E|-----------------------------------------------------------------------|


Verse 2 - 1.04:
"I think it's okay that I'd rather stay..."
G|--------------------------------------------|
D|---7---7------10---10---3---3----7---7---7--|
A|-5---5---5--8----8----1---1----5---5---5----|
E|--------------------------------------------|

"We go down on one another..."
G|------------------------------------------------------------------|
D|-------------------------------------------------5-5-5-5-5-5-5-5--|
A|-1-1-1-1-1-1-1-0-----------------3-3-3-3-3-3-3-3------------------|
E|-----------------1-1-1-1-1-1-1-3----------------------------------|

G|--------------------------------------------------|
D|--------------------------------------------------|
A|-1-1-1-1-1-1-1-0----------------------------------|
E|-----------------1-1-1-1-1-1-1-3-3-3-3-3-3-3-3-3--|

Chorus 2 - 2.02:
"All night..."
G|-----------------------------------------------------------------------|
D|-----------------------------------------------------------------------|
A|-5-5-5-5-5-5-5-5-5-5-5-7-7-7-9-9-10-10-10-10-10-10-10-10-10-3-3-3-0-3--| x2
E|-----------------------------------------------------------------------|

the chorus plays again, but the drums change to more hi-hat for this loop variant
G|--------------------------------------------------------------|
D|--------------------------------------------------------------|
A|-5-5-5-5-5-5-5-5-5-5-5-----------------------------3-3-3-0-3--| x2
E|-----------------------0-0-0-2-2-3-3-3-3-3-3-3-3-3------------|


Bridge - 2.20:
G|------------------------------------------------------------------|
D|------------------------------------------------------------------|
A|-1-1-1-1-1-1-1-1-----------------5-5-5-5-5-5-5-5-8-8-8-8-8-8-8-8--| x2.5
E|-----------------3-3-3-3-3-3-3-3----------------------------------|

A5 replaces the first 3 beats of A8 on the second loop and the third loop stops after E3


Chorus 3 - 2.49:
"All night..."
G|-----------------------------------------------------------------------|
D|-----------------------------------------------------------------------|
A|-5-5-5-5-5-5-5-5-5-5-5-7-7-7-9-9-10-10-10-10-10-10-10-10-10-3-3-3-0-3--| x2
E|-----------------------------------------------------------------------|

G|--------------------------------------------------------------|
D|--------------------------------------------------------------|
A|-5-5-5-5-5-5-5-5-5-5-5-----------------------------3-3-3-0-3--| x2
E|-----------------------0-0-0-2-2-3-3-3-3-3-3-3-3-3------------|


************************************

| ~  Vibrato

************************************

Almost there ...

Sign in to get your own page with links to favourite songs and more. You are just one click away...

Login with Facebook Login with Google