Log in

One click and you are in

Login with Facebook Login with Google

Why sign up and log in

Guitar Tabs Explorer
Steve Hackett tabs for Star of sirius

Guitar tabs

Track title: Star of Sirius
Album: Voyage of the Acolyte

Tabbed by: John Conover (Jaycon11@yahoo.com)

Steve Hackett - Star of Sirius

Intro and Verse (1st Part):

|-------------------0-------------------------------0---------------
|---1-----------1---------------1---1-----------1---------------1---
|-----------0---------------0---------------0---------------0-------
|-------3---------------3---------------3---------------3-----------
|---3---------------3---------------3---------------3---------------
|-------------------------------------------------------------------


|-------------------0-------------------------------0---------------
|---1-----------1---------------1---1-----------1---------------1---
|-----------0---------------0---------------0---------------0-------
|-------3---------------3---------------3---------------3-----------
|---1---------------1---------------0---------------0---------------
|-------------------------------------------------------------------


|-------------------6-----------------------6---------------5-------
|---3-----------3---------------3---3-------------------6-----------
|-----------3---------------3-----------------------3-------7-------
|-------3---------------3---------------3-----------0---------------
|---3---------------3---------------3-------------------------------
|-------------------------------------------------------------------


Verse (2nd Part):

|-------------------3-------------------------------3---------------
|---3-----------3---------------3---3-----------3---------------3---
|-----------4---------------4---------------4---------------4-------
|-------5---------------5---------------5---------------5-----------
|---3---------------3---------------3---------------3---------------
|-------------------------------------------------------------------

|-------------------3-------------------------------3---------------
|---3----------3----------------3---3-----------3---------------3---
|-----------4---------------4---------------4---------------4-------
|-------5---------------5---------------5---------------5-----------
|---3---------------3---------------3---------------3---------------
|-------------------------------------------------------------------


|-------------------------------------------------------------------
|---1-----------1---1-----------1---1-----------1---1-----------1---
|-----------2---------------2---------------2---------------2-------
|-------3---------------3---------------3---------------3-----------
|---0---------------0---------------0---------------0---------------
|-------------------------------------------------------------------


|-------------------3--------------------------------3---------------
|---3-----------3----------------3---3-----------3---------------3---
|-----------3---------------3----------------3---------------3-------
|-------5---------------5----------------5---------------3-----------
|---5--------------------------------5-------------------------------
|-------------------3--------------------------------3---------------


|-------------------3-------------------------------3----------------
|---3-----------3---------------3---3-----------3--------------------
|-----------3---------------3---------------3---------------3--------
|-------3---------------3---------------3---------------3------------
|---3---------------3---------------3---------------3----------------
|--------------------------------------------------------------------


Bridge:

      |       |       |       |       |       |       |

  |-----------0-----------------------1-------1-------1-------
  |-----------1---1-------1-----------2-------2-------2-------
7 |-------0-----------0-----------1-------1-------1-------1---
/ |-------3-----------3---------------------------------------
8 |-----------------------------------------------------------
  |---1-----------------------2-------------------------------


      |               |               |               |

  |---2-------2-------2-------2-------0-----------------------2-------
  |---0-------0-------0-------0---------------3-------3-------3-------
4 |-------0-------0-------0-------0-----------0-------0---------------
/ |---------------------------------------0-------0-------0-------0---
4 |-------------------------------------------------------------------
  |---0-------------------------------3-------------------------------


Extended Bridge (Leading Back to Verse):

      |               |               |

  |-------------------3-------------------------------
  |---3-----------3---------------3---3---------------
3 |-----------3---------------3---------------3-------
/ |-------3---------------3---------------3-----------
4 |---3---------------3---------------3---------------
  |---------------------------------------------------


Chorus:

      |                 |            |              |

  |--------------------------------------------------------------
  |---5------7---8------3------------4------7---4---5------------
4 |--------------------------------------------------------------
/ |--------------------------------------------------------------
4 |---3------5---7------2---------------------------3------------
  |----------------------------------3------7---3----------------



Instrumental section:


       |       |       |       |       |       |       |

   |---1-------0-------1---------------------------0---3------
   |---------------------------0-------1-------1--------------
 7 |-------0-------0-------0-------0-------0------------------
 / |----------------------------------------------------------
 4 |---3------------------------------------------------------
   |---------------------------1-------0---------------1------


      |       |       |       |       |       |       |

  |-----------------------------------------------------------
  |---0-------1-------3-------3-------3-------3-------3-------
  |-------0-------0-------0-------2-------2-------2-------0---
  |-----------------------------------------------------------
  |-----------0-------2-------3-------------------------------
  |---3-------------------------------------------------------


      |       |       |       |       |       |       |

  |-----------5---------------5---------------1----------------
  |-----------------------------------5-------3-------2-------
  |---5---------------5---------------4-------3-------2-------
  |-------7---------------------------5-------3-------2-------
  |-------5---------------5-----------5---------------0-------
  |---6-------------------------------------------------------


  |---1-------1-------1-------1-------1-------1-------1-------1-------
  |---3---3---3---3---3---3---3---3---3---3---3---3---3---3---3---3---
4 |-------2-------2-------2-------2-------2-------2-------2-------2---
/ |---0-------------------------------0-------------------------------
4 |-------------------------------------------------------------------
  |-------------------------------------------------------------------


 |---2-------2-------2-------2-------2-------2-------2-------2-------
 |---3---3---3---3---3---3---3---3---3---3---3---3---3---3---3---3---
 |-------3-------3-------3-------3-------3-------3-------3-------3---
 |---0-------------------------------0-------------------------------
 |-------------------------------------------------------------------
 |-------------------------------------------------------------------


 |---2-------2-------2-------2-------2-------2-------2-------2-------
 |---3---3---3---3---3---3---3---3---3---3---3---3---3---3---3---3---
 |-------3-------3-------3-------3-------3-------3-------3-------3---
 |---0-------------------------------0-------------------------------
 |-------------------------------------------------------------------
 |-------------------------------------------------------------------


 |---3-------3-------3-------3-------3-------3-------3-------5-------
 |---4---4---4---4---4---4---4---4---4---4---4---4---4-----------7---
 |-------4-------4-------4-------4-------4-------4-------------------
 |---1-------------------------------1-------------------------------
 |-------------------------------------------------------------------
 |-------------------------------------------------------------------


  |---0-----------0---0---------------0-----------0---0---------------
  |-----------0-------------------4-----------0-------------------4---
4 |-------1-------------------4-----------1-------------------4-------
/ |-----------------------4-------------------------------4-----------
4 |-------------------0-------------------------------0---------------
  |---0-----------4-------------------0-----------4-------------------


  |---0-----------0---0---------------0-----------0---
  |-----------0-------------------4-----------0-------
3 |-------1-------------------4-----------1-----------
/ |-----------------------4---------------------------
4 |-------------------0-------------------------------
  |---0-----------4-------------------0---------------


  |-------------------------------------------------------------------
  |---------------2---------------2---------------4---------------4---
4 |-----------2---------------2---------------4---------------4-------
/ |-------2---------------2---------------4---------------4-----------
4 |---0---------------0---------------2---------------2---------------
  |-------------------------------------------------------------------


  |---0-----------0---0---------------0-----------0---
  |-----------0-------------------4-----------0-------
3 |-------1-------------------4-----------1-----------
/ |-----------------------4---------------------------
4 |-------------------0-------------------------------
  |---0-----------4-------------------0---------------


  |---------------------------------------------------
  |---------------2---------------2---------------4---
  |-----------2---------------2---------------4-------
  |-------2---------------2---------------4-----------
  |---0---------------0---------------2---------------
  |---------------------------------------------------


  |---2---4-------0---2---4-------0---2---4-------0---2---4-------0---
  |-----------4---------------4---------------4---------------4-------
4 |-------1---------------1---------------1---------------1-----------
/ |-------------------------------------------------------------------
4 |-------------------------------------------------------------------
  |---0---------------0---------------0---------------0---------------


       |       |       |       |       |

   |--------------------------------------------
   |-----------0-----------0---2-------4--------
 5 |-------1-------1---2-----------2------------
 / |--------------------------------------------
 8 |--------------------------------------------
   |---0----------------------------------------

(Faster)

  |---2---4-------0---2---4-------0---2---4-------0---2---4-------0---
  |-----------4---------------4---------------4---------------4-------
4 |-------1---------------1---------------1---------------1-----------
/ |-------------------------------------------------------------------
4 |-------------------------------------------------------------------
  |---0---------------0---------------0---------------0---------------


   |---4---5-------2---4---5-------2---
   |-----------2---------------2-------
 2 |-------2---------------2-----------
 / |-----------------------------------
 4 |-----------------------------------
   |---0---------------0---------------


  |-----------5---------------------------------------5-------5-------
  |-------7-------------------2---------------7-----------7-----------
4 |---------------7-------2---------------6---------------------------
/ |---0---------------0-----------4---0-----------6-------------------
4 |-------------------------------------------------------------------
  |-------------------------------------------------------------------


 |---3-------------------------------3-------------------------------
 |---1-------1-------3-------1-------1-------1-------3-------1-------
 |---2---2-------2-------2-------2---2---2-------2-------2-------2---
 |---0-------------------------------0-------------------------------
 |-------------------------------------------------------------------
 |---3-------------------------------3-------------------------------


 |-------------------3-------------------------------3---------------
 |---3-------------------------------3-----------3-------------------
 |---3-------3---------------3-------3-------3---------------3-------
 |---5---5-------5-------5-------5---5---5---------------5-------5---
 |---3-------------------------------3-------------------------------
 |-------------------------------------------------------------------


  |-----------0-----------------------1-------1-------1-------
  |-----------1---1-------1-----------2-------2-------2-------
7 |-------0-----------0-----------1-------1-------1-------1---
/ |-------3-----------3---------------------------------------
8 |-----------------------------------------------------------
  |---1-----------------------2-------------------------------


  |----2-------2-------2-------2-------0-----------------------2-------
  |----0-------0-------0-------0---------------3-------3-------3-------
4 |--------0-------0-------0-------0-----------0-------0---------------
/ |----------------------------------------0-------0-------0-------0---
4 |--------------------------------------------------------------------
  |---0--------------------------------3-------------------------------


(Chorus)

(Solo)

Almost there ...

Sign in to get your own page with links to favourite songs and more. You are just one click away...

Login with Facebook Login with Google