Log in

One click and you are in

Login with Facebook Login with Google

Why sign up and log in

Guitar Tabs Explorer
Steve Hackett guitar chords for Hoping love will last live

Hoping Love Will Last Live chords by Steve Hackett

Steve Hackett guitar chords for Hoping love will last live

Guitar chords

Intro and Verse
   A chord diagramGm7Gm7     A chord diagramG7sus4G7sus4        C7m                  A chord diagramB5B5     TH A chord diagramGm7Gm7
e-|-------3---5------6--|-------------------|---2s5-------1----0---|
B-|------3----6---3-----|--4----------------|------------------|
G-|-3---------5---------|--3----0-2-2-----0-|---4s7----------------|
D-|-3---------0------5--|--5--0--------0----|-0--------------------|
A-|-3--5----------------|--3----------------|-------------2----2---|
E-|-3-------------------|-----------3-------|-------------3----3---|

   B7Sus4 A chord diagramF# minorF#m A chord diagramGmaj7Gmaj7 A chord diagramG5G5              A chord diagramG+G     A chord diagramE minor 7Em7              A chord diagramBm7Bm7        A chord diagramGm7Gm7
e-|-0------2-------3--|--5--5-------3--|-----------------|-2--2--2-----2--|
B-|-2------2-------3--|--3--3----------|--3--3--3--3-----|-3--3--3-----3--|
G-|-2------2----------|--2--2-------4--|--5--5--5--5-----|-2--2--2-----2--|
D-|-0------4---4------|----------------|--5--5--5--5-----|-2--5--5-----5--|
A-|-2------0---2------|----------0-----|-----------------|-2--2--2--2--2--|
E-|------------3---0--|--2-----2----3--|--0-----0--0--0--|----------------|
                    There are many friends...          who shared the same...

#8 0:30                                              0:42
e-||-----------4----0--|-3--2----------|-0--0--0--0---|-2---2---2---2---|
B-||*-1---1----5----3--|-3--3-------3--|-3--3--3--3---|-3---3---3---3---|
G-||--0---0----4----0--|-2--2-------4--|-5--5--5--5---|-2---2---2---2---|
D-||*---------------2--|-0---0------0--|-5--5--5--5---|-2-5-5---2---5---|
A-||--1---0---------3--|---------------|--------------|-2---2---2---2---|
E-||-----------0-------|---------2--3--|-0-----0------|-----------------|
     special thing                                         ...hears as I

                                     0:54
e-|---------4---0-|-0--2--2---3--|-5---5---5--0--|----------3--|------------------|
B-|-1---1---5---3-|-2--2------3--|-3---3---3--0--|-2--2--0--3--|-2--2-----2-------|
G-|-0---0---4---0-|-2--2---------|-2---2---2--0--|-2--2--4-----|-2--2-----2-------|
D-|---------0---2-|-0--4--4------|------------4--|-0--4--0-----|------------------|
A-|-1---0-------3-|-2--0--2------|------------2--|-2--2--2-----|------------------|
E-|---------0-----|-----------0--|-2-2---2----3--|-------3--0--|-2--2--2--2--2--0-|
                    I'm hoping...   .last        ..yes I'm hoping..

1:05                                                     1:15
e-|--3--2--3------|-2h3p0---5--|-----7--9----2-----------|-2--2---2--2----3--||repeat at
B-|---------------|---------5--|-------------3----2------|-3--3---3--3---3--*|| measure 8
G-|---------------|---------4--|-----7--9--0-------------|-2--2---4----------||
D-|----------2----|-0-------7--|-------------------------|--------0---------*||
A-|---------------|---------0--|--------0-0----0--0----0-|------0------------||
E-|-------------0-|------------|-------------------------|-2---2--3----------||

string part
 2:11               th   th                            2:22
e-||-5--2--4-----|----------------|-3--4-------|-----0-------|-----------|
B-||-------------|----------0-------------|-4--7-------|-------3-----|-1----1----|
G-||-2--2--1---1-|-1------------3--3--3-3-|-3--4---4---|-1-1---2---2-|-0----0----|
D-||---4-----0---|---------2--2---2--2----|-5--4--4-4--|--0----------|-3----3----|
A-||-------------|------------------------|-3--6-------|-------------|-0----1----|
E-||-2-----0-----|-0------4-----4---------|------------|-2-----2-----|-----------|

2:29
e-|--8-------------10-|-6------------8-|-8-----------5----5h6----6-|
B-|---6---6---6-------|--3---3---3-----|--5---5h6---6--6------6----|
G-|----9-9-9-9-9------|---5-3-3-3-3----|---5-----5------5------5---|
D-|-----7---7---7-----|----5---5---5---|----7-----7----------------|
A-|-------------------|----------------|---------------------------|
E-|-0 ----------------|-3--------------|5--------------------------|

2:40                                                             2:50
e-|-5--------3--------|-10-----------7-10-12-|-5---------------2-|----3-3--3-2----2-2---2|
B-|--3---3----3---3---|-----7h8--8--8--------|--3---3-----3---3--|---5----5--3---3-----3-|
G-|---5-5-5----5-5-5--|----7----7--7---------|---2-2-2---2---3---|--4----4---2--2-----2--|
D-|----5---5-5--5---5-|--------9--9----------|----4---4-4---4----|-0----0----0-------0---|
A-|-------------------|----------------------|---------5---------|-----------------------|
E-|-3-----------------|-0--------------------|-2-----------------|-----------------------|

2:54                                     3:01
e-|-2---2-2---2-2-2222-|-2-2-2-2-2-2-2-2-|-0-0-0-0-0-0-0---|-2-2----2---|
B-|-2-----2-----2-2222-|-2 2 2 2 2 2 2 2-|-4-4-4-4-4-4-4-5-|-5-5----5---|
G-|-3--3--3--3--3-3333-|-4-4-4-4-4-4-4-4-|-4-4-4-4-4-4-4---|-4-4----4---|
D-|---2-----2----------|-4-4-4-4-4-4-4-4-|-4-4-4-4-4-4-4---|-2-2----2---|
A-|--------------------|-----------------|-0-0-0-0-0-0-0---|------------|
E-|-2-----2-----2-2222-|-2-2-2-2-2-2-2-2-|-----------------|-4---4-4--4-|

3:08                                                        3:21
e-||-0--0----0---|-2-2-----2----|-2--2--------|-0---------3--|--0-------|
B-||-0--0----0---|-5-5-----5----|-4--4--------|-3-3----------|--3-------|
G-||-0--0----0---|-4-4-----4----|-4--4--------|-2-2-------4--|--5-------|
D-||-2--2----2---|-4-4-----4----|-4--4--------|-0-0----------|--5-------|
A-||-------------|-2------------|-2------2--0-|-------2-0----|----------|
E-||-3----3-3--3-|-2---2-2----2-|-2-----2-----|-2---2-----3--|--0-------|

Almost there ...

Sign in to get your own page with links to favourite songs and more. You are just one click away...

Login with Facebook Login with Google