Log in

One click and you are in

Login with Facebook Login with Google

Why sign up and log in

Guitar Tabs Explorer
H20 bass tabs for Empty pockets

Bass tabs

from 1999's FTTW. There are some cool things Adam Blake adds to the song, but i can't do it.

The first few seconds before the verse:
G--------------------------------------
D--------------------------------------
A--55--33-22---------------------------
E--------------------------------------


Verse:
G-------------------------------------
D-------------------------------------
A-------3333--0000--5-(pause----------
E--3333-------------------------------
Repeat previous verse, but at the end play the D(or A5)six times:

Chours:2X
G------------------------------------
D------------------------------------
A-0000-2222-0000-3--3----------------
E------------------3--3--------------

After Chours:
G-----------------------------------
D-----------------------------------
A--7777--5555--00000----------------
E-----------------------------------


Verse
Chours
After chours

Almost there ...

Sign in to get your own page with links to favourite songs and more. You are just one click away...

Login with Facebook Login with Google