Log in

One click and you are in

Login with Facebook Login with Google

Why sign up and log in

Guitar Tabs Explorer
Gyllene Tider chords for Can you touch me

Guitar chords with lyrics

Tabbed by Jeppe
Tabbed for Standard Tuning
Songwriter: Per Gessle
BPM: 135
Intro
A chord diagramBB  x 2
A chord diagramA minorAm

Piano riff
Listen for the right timing!
e-------------------------9--------------------------------------|
B-9-10-12--9-10-12--9-12----12-------9---10--7---9-10--9-7-------|
G--------------------------------9-11----------------------------|
D----------------------------------------------------------------|
A----------------------------------------------------------------|
E----------------------------------------------------------------|

e-------------------------9-------------------------------------------|
B-9-10-12--9-10-12--9-12----12-------9-10--7--9-----------------------|
G--------------------------------9-11------------9-9---6-9---9-9------|
D----------------------------------------------------9-----------9-10-|
A---------------------------------------------------------------------|
E---------------------------------------------------------------------|

A chord diagramA augmentedA  |


Verse 1

       A chord diagramBB
Do you need it more than I do
A chord diagramBB
Whenever we meet when we've been apart
     A chord diagramBB
Yea, I need a hand to hold on to
A chord diagramBB
Need to hear every beat of your heart

Bridge 1

A chord diagramC# minorC#m
 And when we're dancing close together
        A chord diagramBB
And the music turns real slow
A chord diagramC# minorC#m
 There's one thing on my mind
A chord diagramBB
I just want to know...


Chorus
        A chord diagramE MajorE
Can you feel, can you see, can you touch me?
      A chord diagramBB
Can I give you the love that's inside of me
      A chord diagramE MajorE
Can I take your heart with me?
       A chord diagramE MajorE
Do you know me enough to give it all up?
       A chord diagramE MajorE
Do you know me enough to give it all up?

Interlude

Intro
A chord diagramBB
A chord diagramBB |

Piano riff
e-------------------------9--------------------------------------|
B-9-10-12--9-10-12--9-12----12-------9---10--7---9-10--9-7-------|
G--------------------------------9-11----------------------------|
D----------------------------------------------------------------|
A----------------------------------------------------------------|
E----------------------------------------------------------------|

e-------------------------9------------------------------------------|
B-9-10-12--9-10-12--9-12----12-------9-10--7-------------------------|
G--------------------------------9-11--------------------------------|
D--------------------------------------------------------------------|
A--------------------------------------------------------------------|
E--------------------------------------------------------------------|


Verse 2
        A chord diagramBB
And the beat goes on forever
A chord diagramBB
Boy meet a girl and they fall in love
          A chord diagramBB
And we're walking home together
A chord diagramBB
Time, only time - oh there isn't enough


Bridge 2

A chord diagramC# minorC#m
 And when we're making love together
       A chord diagramBB
And you let your feelings show
        A chord diagramG# minorG#m             C3m
there's one thing on my mind
A chord diagramBB
I just got to know...


Chorus
        A chord diagramE MajorE
Can you feel, can you see, can you touch me?
      A chord diagramBB
Can I give you the love that's inside of me
      A chord diagramE MajorE
Can I take your heart with me?
       A chord diagramE MajorE
Do you know me enough to give it all up?
       A chord diagramA minorAm
Do you know me enough to give it all up?


Solo
A chord diagramE MajorE
A chord diagramE MajorE


Chorus
        A chord diagramF#F#
Can you feel, can you see, can you touch me?
      A chord diagramC#C#
Can I give you the love that's inside of me
      A chord diagramF#F#
Can I take your heart with me?
       A chord diagramF#F#
Do you know me enough to give it all up?
       A chord diagramF#F#
Do you know me enough to give it all up?

Repeat chorus till the end!

Almost there ...

Sign in to get your own page with links to favourite songs and more. You are just one click away...

Login with Facebook Login with Google