Log in

One click and you are in

Login with Facebook Login with Google

Why sign up and log in

Guitar Tabs Explorer
Guus Meeuwis And Vagant bass tabs for Ik tel tot drie

Ik Tel Tot Drie bass tab by Guus Meeuwis And Vagant

Guus Meeuwis And Vagant bass tabs for Ik tel tot drie

Bass tabs with lyrics

Tuning: Standard (E A D G)

4:4, 190bpm


Intro:
G|----------------|----------------|
D|----------------|----------------|
A|7---------------|---------7------|
E|----7---5---9---|7---11----------|

Verse 1:
 De zon komt mooier op die dag dan anders
G|----------------|----------------|
D|----------------|----------------|
A|7-------9-------|7-------9-------|
E|----7-------9---|----7-------9---|

 Op ‘t moment dat je je ogen open doet
G|----------------|--------------------------|
D|----------------|--------------------------|
A|7-------9-------|---7-----9---------------7|
E|----7-------9---|5----5-7----7-7--7-9--11--|

 En heel de kamer is totaal veranderd
G|----------------|----------------|
D|----------------|----------------|
A|4--4-4----------|----------------|
E|--------5--5-5--|4--4-4--5--5-5--|

 Wat scheef was dat blijkt in een keer goed.
G|--------|-----------------|
D|--------|-----------------|
A|7-----7-|--9-------------7|
E|--7-5--5|7---7-7--7-9-11--|

 In m’n blootje ga 'k op zoek ‘n ontbijt
G|----------------|----------------|
D|----------------|----------------|
A|7-------9-------|7-------9-------|
E|----7-------9---|----7-------9---|

 Waar heb je zin in vraag ik en je zegt vers fruit
G|----------------|----------------------------|
D|----------------|----------------------------|
A|7-------9-------|---7-----9-----------------7|
E|----7-------9---|5----5-7-----7-7--7--9--11--|

 Nou ja vers t ligt hier al een tijdje
G|----------------|----------------|
D|----------------|----------------|
A|4--4-4----------|----------------|
E|--------5--5-5--|4--4-4--5--5-5--|

 Maar dat is goed omdat t nu zo lekker ruikt. .
G|----------------|----------------|
D|----------------|----------------|
A|----------------|-----9--9------9|
E|5--5-5--2--2-2--|7--7------7--7--|


Chorus:
Ik tel tot drie 1 2 3 {shout "1, 2, 3!"}
G|----------------|
D|----------------|
A|------7---------|
E|7-9-11----------|

 En dan gaat het gebeuren     Alles gaat zo goed ‘t kan niets fout
G|----------------|----------------|------------------|-----------------|
D|----------------|----------------|------------------|------------------|
A|----7-------2---|----7-------2---|----7--------9----|-----9----7-------|
E|5-9---9-0-4---4-|5-9---9-0-4---4-|5-9---9-7-11---11-|7-11---11---------|

Ik tel tot drie 1 2 3 {shout "1, 2, 3!"}
G|----------------|
D|----------------|
A|------7---------|
E|7-9-11----------|

 En dan gaat het gebeuren     Vandaag zeg jij me dat je van me houdt
G|----------------|----------------|----------------|----------------|
D|----------------|----------------|----------------|----------------|
A|----7-------2---|----7-------2---|--------3---2---|7-------7-------|
E|5-9---9-0-4---4-|5-9---9-0-4---4-|2---5-----------|--9-7-9---9-7-9-|


Verse 2:
 We lezen samen in de krant alleen ‘t goede
G|----------------|----------------|
D|----------------|----------------|
A|7-------9-------|7-------9-------|
E|----7-------9---|----7-------9---|

 De sport, de strips, de horoscoop die je me vroeg
G|----------------|--------------------------|
D|----------------|--------------------------|
A|7-------9-------|---7-----9---------------7|
E|----7-------9---|5----5-7----7-7--7-9--11--|

 Voor al 't andere wil ik je graag behoeden
G|----------------|----------------|
D|----------------|----------------|
A|4--4-4----------|----------------|
E|--------5--5-5--|4--4-4--5--5-5--|

 In onze eigen wereld gebeurt meer dan genoeg
G|----------------|-----------------|
D|----------------|-----------------|
A|7---------7-----|--9-------------7|
E|----7---5----5--|7---7-7--7-9-11--|

 En dan vul jij 't bad meer schuim dan water
G|----------------|----------------|
D|----------------|----------------|
A|7-------9-------|7-------9-------|
E|----7-------9---|----7-------9---|

 We liggen uren lang, 't warme water stroomt
G|--------|----------------------------|
D|--------|----------------------------|
A|7---9---|---7-----9-----------------7|
E|--7---9-|5----5-7-----7-7--7--9--11--|

 We praten over nu en nu al over later
G|----------------|----------------|
D|----------------|----------------|
A|4--4-4----------|----------------|
E|--------5--5-5--|4--4-4--5--5-5--|

 Je hebt rimpels als je uit de badkuip komt
G|----------------|----------------|
D|----------------|----------------|
A|----------------|-----9--9------9|
E|5--5-5--2--2-2--|7--7------7--7--|


Chorus:
Ik tel tot drie 1 2 3 {shout "1, 2, 3!"}
G|----------------|
D|----------------|
A|------7---------|
E|7-9-11----------|

 En dan gaat het gebeuren     Alles gaat zo goed ‘t kan niets fout
G|----------------|----------------|------------------|------------------|
D|----------------|----------------|------------------|------------------|
A|----7-------2---|----7-------2---|----7--------9----|-----9----7-------|
E|5-9---9-0-4---4-|5-9---9-0-4---4-|5-9---9-7-11---11-|7-11---11---------|

Ik tel tot drie 1 2 3 {shout "1, 2, 3!"}
G|----------------|
D|----------------|
A|------7---------|
E|7-9-11----------|

 En dan gaat het gebeuren     Vandaag zeg jij me dat je van me houdt
G|----------------|----------------|----------------|----------------|
D|----------------|----------------|----------------|----------------|
A|----7-------2---|----7-------2---|--------3---2---|7-------7-------|
E|5-9---9-0-4---4-|5-9---9-0-4---4-|2---5-----------|--9-7-9---9-7-9-|


Bridge:
 Ik zei vroeger veel te vaak en om de haverklap
G|----------------------|----------------------|
D|----------------------|----------------------|
A|------5---5-------5---|------2---2-------2---|
E|3---3-------3---3---3-|0---0-------0---0---0-|

 en tegen elke vrouw die het maar horen wou
G|----------------------|----------------------|
D|----------------------|----------------------|
A|------5---5-------5---|------2---2-------2---|
E|3---3-------3---3---3-|0---0-------0---0---0-|

 maar ditkeer zet ik zelf niet de eerste stap
G|--------------------|--------------------|
D|--------------------|--------------------|
A|------2---------3---|------5---------9---|
E|0---0---0-1---1---1-|3---3---3-7---7---7-|

 Ik wil het horen uit die mooie mond van jou
G|--------------------|--------------------|
D|--------------------|--------------------|
A|------7---------7---|------9---9-------9-|
E|5---5---5-5---5---5-|7---7-------7---7---|


Chorus:
Ik tel tot drie 1 2 3 {shout "1, 2, 3!"}
G|----------------|
D|----------------|
A|------7---------|
E|7-9-11----------|

 En dan gaat het gebeuren     Alles gaat zo goed ‘t kan niets fout
G|----------------|----------------|------------------|-----------------|
D|----------------|----------------|------------------|------------------|
A|----7-------2---|----7-------2---|----7--------9----|-----9----7-------|
E|5-9---9-0-4---4-|5-9---9-0-4---4-|5-9---9-7-11---11-|7-11---11---------|

Ik tel tot drie 1 2 3 {shout "1, 2, 3!"}
G|----------------|
D|----------------|
A|------7---------|
E|7-9-11----------|

 En dan gaat het gebeuren     Vandaag zeg jij me dat je van me houdt
G|----------------|----------------|----------------|----------------|
D|----------------|----------------|----------------|----------------|
A|----7-------2---|----7-------2---|--------3---2---|7-------7-------|
E|5-9---9-0-4---4-|5-9---9-0-4---4-|2---5-----------|--9-7-9---9-7-9-|

Saxophone solo (Can be played on Kazoo):


VERSE 3:: (No Bass!)
't Gebeurt nu, dus nu moet je 't plukken
't Vele fruit dat nu zo lekker ruikt
En met z'n tweeën moet 't voor de winter lukken
Zolang je beiden, beide handen maar gebruikt.


Chorus:
Ik tel tot drie 1 2 3 {shout "1, 2, 3!"}
G|----------------|
D|----------------|
A|------7---------|
E|7-9-11----------|

 En dan gaat het gebeuren     Alles gaat zo goed ‘t kan niets fout
G|----------------|----------------|------------------|-----------------|
D|----------------|----------------|------------------|------------------|
A|----7-------2---|----7-------2---|----7--------9----|-----9----7-------|
E|5-9---9-0-4---4-|5-9---9-0-4---4-|5-9---9-7-11---11-|7-11---11---------|

Ik tel tot drie 1 2 3 {shout "1, 2, 3!"}
G|----------------|
D|----------------|
A|------7---------|
E|7-9-11----------|

 En dan gaat het gebeuren     Vandaag zeg jij me dat je van me houdt
G|----------------|----------------|----------------|----------------|
D|----------------|----------------|----------------|----------------|
A|----7-------2---|----7-------2---|--------3---2---|7-------7-------|
E|5-9---9-0-4---4-|5-9---9-0-4---4-|2---5-----------|--9-7-9---9-7-9-|

 Vandaag zeg jij me dat je van me houdt
G|----------------|----------------|
D|----------------|----------------|
A|--------3---2---|7-------7-------|
E|2---5-----------|--9-7-9---9-7-9-|

 Vandaag zeg jij me dat je van me houdt
G|----------------|----------------|
D|----------------|----------------|
A|--------3---2---|7--------7-7-7-7|
E|2---5-----------|--9-7-9---------|

Almost there ...

Sign in to get your own page with links to favourite songs and more. You are just one click away...

Login with Facebook Login with Google