Log in

One click and you are in

Login with Facebook Login with Google

Why sign up and log in

Guitar Tabs Explorer
Guns N' Roses guitar tabs for Scraped

Guitar tabs

Tuning: Drop A chord diagramDbDb (A chord diagramDbDb A chord diagramAbAb A chord diagramDbDb A chord diagramGbGb A chord diagramBb majorBb A chord diagramEb MajorEb)


Intro:

Woahs, don't you try to stop us now
Eb|---------------------------------------------------------------------------|
Bb|---------------------------------------------------------------------------|
Gb|---------------------------------------------------------------------------|
Db|0-12-0-0-6-5-3-------------------------------------------------------------| x3
Ab|0 12-0-0-6-5-3-------------------------------------------------------------|
Db|0/12\0-0-6-5-3-------------------------------------------------------------|

On 4th time
'cuz I just won't let you
Eb|---------------------------------------------------------------------------|
Bb|---------------------------------------------------------------------------|
Gb|---------------------------------------------------------------------------|
Db|7-6-5-6-5-3----------------------------------------------------------------|
Ab|7-6-5-6-5-3----------------------------------------------------------------|
Db|7-6-5-6-5-3----------------------------------------------------------------|


Verse 1:

Sometimes I feel like the world is on top of me...
Eb|---------------------------------------------------------------------------|
Bb|---------------------------------------------------------------------------|
Gb|---------------------------------------------------------------------------|
Db|0-0-0-3-0-5-0-6-7-10-7-6-5-3-----------------------------------------------| x2
Ab|0-0-0-3-0-5-0-6-7-10-7-6-5-3-----------------------------------------------|
Db|0-0-0-3-0-5-0-6-7-10-7-6-5-3-----------------------------------------------|

Sometimes I feel like there's nothing that's stopping me...
Eb|---------------------------------------------------------------------------|
Bb|---------------------------------------------------------------------------|
Gb|---------------------------------------------------------------------------|
Db|2-2-2-5-7-8-9-12-9-8-7-5---------------------------------------------------| x2
Ab|2-2-2-5-7-8-9-12-9-8-7-5---------------------------------------------------|
Db|2-2-2-5-7-8-9-12-9-8-7-5---------------------------------------------------|

Some may convince you...
Eb|---------------------------------------------------------------------------|
Bb|---------------------------------------------------------------------------|
Gb|---------------------------------------------------------------------------|
Db|14-14-12-12-9-9-8-9-9-8-8-7-7-5-5-12-12-10-10-7-7-6-6-7-7-6-6-5-5-3-3------|
Ab|14-14-12-12-9-9-8-9-9-8-8-7-7-5-5-12-12-10-10-7-7-6-6-7-7-6-6-5-5-3-3------|
Db|14-14-12-12-9-9-8-9-9-8-8-7-7-5-5-12-12-10-10-7-7-6-6-7-7-6-6-5-5-3-3------|


Verse 2:

Woahs, don't you try to stop us now
Eb|---------------------------------------------------------------------------|
Bb|---------------------------------------------------------------------------|
Gb|---------------------------------------------------------------------------|
Db|0-12-0-0-6-5-3-------------------------------------------------------------| x3
Ab|0-12-0-0-6-5-3-------------------------------------------------------------|
Db|0/12\0-0-6-5-3-------------------------------------------------------------|

'cuz I just won't let you
Eb|---------------------------------------------------------------------------|
Bb|---------------------------------------------------------------------------|
Gb|---------------------------------------------------------------------------|
Db|7-6-5-6-5-3----------------------------------------------------------------|
Ab|7-6-5-6-5-3----------------------------------------------------------------|
Db|7-6-5-6-5-3----------------------------------------------------------------|

Sometimes I feel like my life's a catastrophe...
Eb|---------------------------------------------------------------------------|
Bb|---------------------------------------------------------------------------|
Gb|---------------------------------------------------------------------------|
Db|0-0-0-3-0-5-0-6-7-10-7-6-5-3-----------------------------------------------|
Ab|0-0-0-3-0-5-0-6-7-10-7-6-5-3-----------------------------------------------|
Db|0-0-0-3-0-5-0-6-7-10-7-6-5-3-----------------------------------------------|

Sometimes I feel like it's all opened up for me...
Eb|---------------------------------------------------------------------------|
Bb|---------------------------------------------------------------------------|
Gb|---------------------------------------------------------------------------|
Db|2-2-2-5-7-8-9-12-9-8-7-5---------------------------------------------------|
Ab|2-2-2-5-7-8-9-12-9-8-7-5---------------------------------------------------|
Db|2-2-2-5-7-8-9-12-9-8-7-5---------------------------------------------------|

No one can make...
Eb|---------------------------------------------------------------------------|
Bb|---------------------------------------------------------------------------|
Gb|---------------------------------------------------------------------------|
Db|14-14-12-12-9-9-8-9-9-8-8-7-7-5-5-12-12-10-10-7-7-6-6-7-7-6-6-5-5-3-3------|
Ab|14-14-12-12-9-9-8-9-9-8-8-7-7-5-5-12-12-10-10-7-7-6-6-7-7-6-6-5-5-3-3------|
Db|14-14-12-12-9-9-8-9-9-8-8-7-7-5-5-12-12-10-10-7-7-6-6-7-7-6-6-5-5-3-3------|


Chorus:

Don't you try and stop us now...
Eb|---------------------------------------------------------------------------|
Bb|---------------------------------------------------------------------------|
Gb|7--5-5-3-2--------5-5-3-2------7--5-5-3-2--------5-5-3-2-------------------|
Db|7--5-5-3-2-5-3--0-5-5-3-2-5-3--7--5-5-3-2-5-3--0-5-5-3-2-5-3---------------|
Ab|5--3-3-1-0-5-3--0-3-3-1-0-5-3--5--3-3-1-0-5-3--0-3-3-1-0-5-3---------------|
Db|-----------5-3--0---------5-3-------------5-3--0---------5-3---------------|


Bridge: (Repeat x2)

Eb|---------------------------------------------------------------------------|
Bb|---------------------------------------------------------------------------|
Gb|---------------------------------------------------------------------------|
Db|0-0-0-0-0--0-0-0-0-0-3--0-0-0-0-5-3----------------------------------------|
Ab|0-0-0-0-0--0-0-0-0-0-3--0-0-0-0-5-3----------------------------------------|
Db|0-0-0-0-0--0-0-0-0-0-3--0-0-0-0-5-3----------------------------------------|

Eb|---------------------------------------------------------------------------|
Bb|---------------------------------------------------------------------------|
Gb|---------------------------------------------------------------------------|
Db|5-5-5-5-5-7-8-7-7-7-7-7-8-10-12-12-10-10-8-8-8-----------------------------|
Ab|5-5-5-5-5-7-8-7-7-7-7-7-8-10-12-12-10-10-8-8-8-----------------------------|
Db|5-5-5-5-5-7-8-7-7-7-7-7-8-10-12-12-10-10-8-8-8-----------------------------|

Eb|---------------------------------------------------------------------------|
Bb|---------------------------------------------------------------------------|
Gb|--------------------------------10-9---------------------------------------|
Db|5-5-5-5-5-7-8-7-7-7-7-7-8-10-10-10-9---------------------------------------|
Ab|5-5-5-5-5-7-8-7-7-7-7-7-8-10-10-8--7\0-------------------------------------|
Db|5-5-5-5-5-7-8-7-7-7-7-7-8-10-10--------------------------------------------|

So they convince you...
Eb|---------------------------------------------------------------------------|
Bb|---------------------------------------------------------------------------|
Gb|---------------------------------------------------------------------------|
Db|14-14-12-12-9-9-8-9-9-8-8-7-7-5-5-12-12-10-10-7-7-6-6-7-7-6-6-5-5-3-3------|
Ab|14-14-12-12-9-9-8-9-9-8-8-7-7-5-5-12-12-10-10-7-7-6-6-7-7-6-6-5-5-3-3------|
Db|14-14-12-12-9-9-8-9-9-8-8-7-7-5-5-12-12-10-10-7-7-6-6-7-7-6-6-5-5-3-3------|


Chorus:

Don't you try and stop us now...
Eb|---------------------------------------------------------------------------|
Bb|---------------------------------------------------------------------------|
Gb|7--5-5-3-2--------5-5-3-2------7--5-5-3-2--------5-5-3-2-------------------|
Db|7--5-5-3-2-5-3--0-5-5-3-2-5-3--7--5-5-3-2-5-3--0-5-5-3-2-5-3---------------| x2
Ab|5--3-3-1-0-5-3--0-3-3-1-0-5-3--5--3-3-1-0-5-3--0-3-3-1-0-5-3---------------|
Db|-----------5-3--0---------5-3-------------5-3--0---------5-3---------------|


Outro:

Eb|---------------------------------------------------------------------------|
Bb|---------------------------------------------------------------------------|
Gb|---------------------------------------------------------------------------|
Db|0--12-0-0-6-5-3------------------------------------------------------------| x4
Ab|0--12-0-0-6-5-3------------------------------------------------------------|
Db|0-/12\0-0-6-5-3------------------------------------------------------------|

Eb|---------------------------------------------------------------------------|
Bb|---------------------------------------------------------------------------|
Gb|---------------------------------------------------------------------------|
Db|2-2-2-5-7-8-9-12-9-8-7-5---------------------------------------------------| x2
Ab|2-2-2-5-7-8-9-12-9-8-7-5---------------------------------------------------|
Db|2-2-2-5-7-8-9-12-9-8-7-5---------------------------------------------------|


************************************

| /   Slide up
| \   Slide down

************************************

Almost there ...

Sign in to get your own page with links to favourite songs and more. You are just one click away...

Login with Facebook Login with Google