Log in

One click and you are in

Login with Facebook Login with Google

Why sign up and log in

Guitar Tabs Explorer
The Growlers bass tabs for Gay thoughts

Bass tabs

Tuning: Standard (E A D G)


Chorus A:

G|-------------------------------|
D|--------3---3---3---3----------|
A|5---5-----3---3---3---3-5---5--|
E|--5---5-------------------5---5| x2
Chorus B:

G|-------------------------------|    |-------|
D|-------------------------------|    |------3|
A|1---1---3---3---5---5---5---5--|    |5---3--|
E|--1---1---3---3---5---5---5---5| x2 |--5----|


Verse:

G|-------------------------------|
D|--------3---3---3---3----------|
A|5---5-----3---3---3---3-5---5--|
E|--5---5-------------------5---5| x2


Chorus B:

G|-------------------------------------|
D|-------------------------------------|
A|1---1---3---3---3-5---5---5---5------|
E|--1---1---3---3-----5---5---5---5-3-1|

G|---------------------------------------|
D|--------------------------------------3|
A|1---1---1-3---3---3-5---5---5---5---3--|
E|--1---1-----3---3-----5---5---5---5----|

Bridge:

G|-----------------------------------------------|
D|-----------------------------------------------|
A|5---3-5---3-5---3-5---3-3---1-3---1-3---1-3---1|
E|--5-----5-----5-----5-----3-----3-----3-----3--| x5


Chorus B:

G|-----------------------------------|
D|-----------------------------------|
A|1---1---3---3---5---5---5---5------|
E|--1---1---3---3---5---5---5---5-3-1|

G|--------------------------------|
D|--------------------------------|
A|1---1---3---3---3-5---5---5---5~|
E|--1---1---3---3-----5---5---5---|

G|--------------|
D|--------------|
A|5---5---5---5~|
E|--5---5---5---|


Bridge:

G|-------------------------------|
D|--------3---3---3---3----------|
A|5---5-----3---3---3---3-5---5--|
E|--5---5-------------------5---5| x4


Chorus B:

G|-----------------------------------|
D|-----------------------------------|
A|1---1---3---3---5---5---5---5------|
E|--1---1---3---3---5---5---5---5-3-1|

G|----------------------------------|
D|----------------------------------|
A|1---1---1-3---3---3-5---5---5---5~|
E|--1---1-----3---3-----5---5---5---|


Bridge:

G|-----------------------------------------------|
D|-----------------------------------------------|
A|5---3-5---3-5---3-5---3-3---1-3---1-3---1-3---1|
E|--5-----5-----5-----5-----3-----3-----3-----3--| x3

G|-------------------------------------------|
D|-------------------------------------------|
A|5---3-5---3-5---3-5---3-3---1-3---1-3---1-3|
E|--5-----5-----5-----5-----3-----3-----3----|

G|--------------|
D|--------------|
A|5---5---5---5~|
E|--5---5---5---|


Chorus A:

G|-------------------------------|
D|--------3---3---3---3----------|
A|5---5-----3---3---3---3-5---5--|
E|--5---5-------------------5---5| x2


Chorus B:

G|-----------------------------------|
D|-----------------------------------|
A|1---1---3---3---5---5---5---5------|
E|--1---1---3---3---5---5---5---5-3-1|

G|----------------------------------|
D|----------------------------------|
A|1---1---1-3---3---3-5---5---5---5~|
E|--1---1-----3---3-----5---5---5---|

************************************

| ~   Let ring

************************************

Almost there ...

Sign in to get your own page with links to favourite songs and more. You are just one click away...

Login with Facebook Login with Google