Log in

One click and you are in

Login with Facebook Login with Google

Why sign up and log in

Guitar Tabs Explorer
Josh Groban tabs for What child is this

Guitar tabs

(listen to this video of the song on youtube.com if you want, helped me,
http://www.youtube.com/watch v=3ULS8_4lizY)

PART 1
|---------------0---2---0-------------------------------------------------------|
|-------1---3---------------3---0-----------0---1-------------------0-----------|
|---2-------------------------------0---2-----------2---2---1---2-------1-------|
|---------------------------------------------------------------------------2---|
|-------------------------------------------------------------------------------|
|-------------------------------------------------------------------------------|
PART 2
|---------------0---2---0-------------------------------------------------------|
|-------1---3---------------3---0-----------0---1---0---------------------------|
|---2-------------------------------0---2---------------2---1-------1---2---2---|
|---------------------------------------------------------------4---------------|
|-------------------------------------------------------------------------------|
|-------------------------------------------------------------------------------|

(if you would like, just hit the first 2 notes instead of 3 for Part 3 and 4)

PART 3
|---3---3---3---2---0-------------------------------------------------------|
|-----------------------3---0-----------0---1-------------------0-----------|
|-------------------------------0---2-----------2---2---1---2-------1-------|
|-----------------------------------------------------------------------2---|
|---------------------------------------------------------------------------|
|---------------------------------------------------------------------------|


PART 4
|---3---3---3---2---0-------------------------------------------------------|
|-----------------------3---0-----------0---1---0---------------------------|
|-------------------------------0---2---------------2---1-------1---2---2---|
|-----------------------------------------------------------4---------------|
|---------------------------------------------------------------------------|
|---------------------------------------------------------------------------|

Almost there ...

Sign in to get your own page with links to favourite songs and more. You are just one click away...

Login with Facebook Login with Google