Log in

One click and you are in

Login with Facebook Login with Google

Why sign up and log in

Guitar Tabs Explorer
Grlwood guitar tabs for Vaccines made me gay

Guitar tabs

Tuning: Standard (E A D G B E)


Intro:
Light palm mute
e|---------------------------------------------------------------------------|
B|---------------------------------------------------------------------------|
G|---------------------------------------------------------------------------|
D|---------------------------------------------------------------------------|
A|---------------------------------------------------------------------------|
E|-2--2-2-2-3-0--2--2-2-2-2-2-2-2-3--3-3-3-3-3-3--3-3-3-5-5-3-3--------------|
                                                                                    X2
e|---------------------------------------------------------------------------|
B|---------------------------------------------------------------------------|
G|---------------------------------------------------------------------------|
D|---------------------------------------------------------------------------|
A|---------------------------------------------------------------------------|
E|-2--2-2-2-3-0--2--2-2-2-2-2-2-2--10--10-10-10-10-10-10-9-9-9-9-9-9-9-------|



Verse 1:


e|---------------------------------------------------------------------------|
B|---------------------------------------------------------------------------|
G|---------------------------------------------------------------------------|
D|---------------------------------------------------------------------------|
A|---------------------------------------------------------------------------|
E|-2--2-2-2-3-0--2--2-2-2-2-2-2-2-3--3-3-3-3-3-3--3-3-3-5-5-3-3--------------|

e|---------------------------------------------------------------------------|
B|---------------------------------------------------------------------------|
G|---------------------------------------------------------------------------|
D|---------------------------------------------------------------------------|
A|---------------------------------------------------------------------------|
E|-2--2-2-2-3-0--2--2-2-2-2-2-2-2--10--10-10-10-10-10-10-9-9-9-9-9-9-9-------|

e|---------------------------------------------------------------------------|
B|---------------------------------------------------------------------------|
G|---------------------------------------------------------------------------|
D|---------------------------------------------------------------------------|
A|---------------------------------------------------------------------------|
E|-2--2-2-2-3-0--2--2-2-2-2-2-2-2-3--3-3-3-3-3-3--3-3-3-5-5-3-3--------------|

e|---------------------------------------------------------------------------|
B|---------------------------------------------------------------------------|
G|---------------------------------------------------------------------------|
D|---------------------------------------------------------------------------|
A|---------------------------------------------------------------------------|
E|-2--2-2-2-3-0--2--2-2-2-2-2-2-2------10----9-------------------------------|

Chorus:

e|-------------------------------------------------------------|
B|-------------------------------------------------------------|
G|-------------------------------------------------------------|
D|-4-4-4-4-4-4-4-4-4-4-4-4--5-5-5-5-5-5-5-5-5-5-5-5-7-7-7-7----|
A|-4-4-4-4-4-4-4-4-4-4-4-4--5-5-5-5-5-5-5-5-5-5-5-5-7-7-7-7----|
E|-2-2-2-2-2-2-2-2-2-2-2-2--3-3-3-3-3-3-3-3-3-3-3-3-5-5-5-5----|
   A chord diagramD MajorD A chord diagramD MajorD U U A chord diagramD MajorD U A chord diagramD MajorD A chord diagramD MajorD U U A chord diagramD MajorD U  A chord diagramD MajorD A chord diagramD MajorD U U A chord diagramD MajorD U A chord diagramD MajorD A chord diagramD MajorD U U A chord diagramD MajorD U A chord diagramD MajorD U A chord diagramD MajorD U
                                                                      X2

e|-------------------------------------------------------|
B|-------------------------------------------------------|
G|--------------------------7-7-7-7-7-7--6-6-6-6-6-6-----|
D|-4-4-4-4-4-4-4-4-4-4-4-4--7-7-7-7-7-7--6-6-6-6-6-6-----|
A|-4-4-4-4-4-4-4-4-4-4-4-4--5-5-5-5-5-5--4-4-4-4-4-4-----|
E|-2-2-2-2-2-2-2-2-2-2-2-2-------------------------------|
   A chord diagramD MajorD A chord diagramD MajorD U U A chord diagramD MajorD U A chord diagramD MajorD A chord diagramD MajorD U U A chord diagramD MajorD U  A chord diagramD MajorD A chord diagramD MajorD U U A chord diagramD MajorD U  A chord diagramD MajorD A chord diagramD MajorD U U A chord diagramD MajorD U


Verse 2:
e|---------------------------------------------------------------------------|
B|---------------------------------------------------------------------------|
G|---------------------------------------------------------------------------|
D|---------------------------------------------------------------------------|
A|---------------------------------------------------------------------------|
E|-2--2-2-2-3-0--2--2-2-2-2-2-2-2-3--3-3-3-3-3-3--3-3-3-5-5-3-3--------------|

e|---------------------------------------------------------------------------|
B|---------------------------------------------------------------------------|
G|---------------------------------------------------------------------------|
D|---------------------------------------------------------------------------|
A|---------------------------------------------------------------------------|
E|-2--2-2-2-3-0--2--2-2-2-2-2-2-2--10--10-10-10-10-10-10-9-9-9-9-9-9-9-------|

e|---------------------------------------------------------------------------|
B|---------------------------------------------------------------------------|
G|---------------------------------------------------------------------------|
D|---------------------------------------------------------------------------|
A|---------------------------------------------------------------------------|
E|-2--2-2-2-3-0--2--2-2-2-2-2-2-2-3--3-3-3-3-3-3--3-3-3-5-5-3-3--------------|

e|---------------------------------------------------------------------------|
B|---------------------------------------------------------------------------|
G|---------------------------------------------------------------------------|
D|---------------------------------------------------------------------------|
A|---------------------------------------------------------------------------|
E|-2--2-2-2-3-0--2--2-2-2-2-2-2-2------10----9-------------------------------|


Chorus:

e|-------------------------------------------------------------|
B|-------------------------------------------------------------|
G|-------------------------------------------------------------|
D|-4-4-4-4-4-4-4-4-4-4-4-4--5-5-5-5-5-5-5-5-5-5-5-5-7-7-7-7----|
A|-4-4-4-4-4-4-4-4-4-4-4-4--5-5-5-5-5-5-5-5-5-5-5-5-7-7-7-7----|
E|-2-2-2-2-2-2-2-2-2-2-2-2--3-3-3-3-3-3-3-3-3-3-3-3-5-5-5-5----|
   A chord diagramD MajorD A chord diagramD MajorD U U A chord diagramD MajorD U A chord diagramD MajorD A chord diagramD MajorD U U A chord diagramD MajorD U  A chord diagramD MajorD A chord diagramD MajorD U U A chord diagramD MajorD U A chord diagramD MajorD A chord diagramD MajorD U U A chord diagramD MajorD U A chord diagramD MajorD U A chord diagramD MajorD U
                                                                      X2

e|-------------------------------------------------------|
B|-------------------------------------------------------|
G|--------------------------7-7-7-7-7-7--6-6-6-6-6-6-----|
D|-4-4-4-4-4-4-4-4-4-4-4-4--7-7-7-7-7-7--6-6-6-6-6-6-----|
A|-4-4-4-4-4-4-4-4-4-4-4-4--5-5-5-5-5-5--4-4-4-4-4-4-----|
E|-2-2-2-2-2-2-2-2-2-2-2-2-------------------------------|
   A chord diagramD MajorD A chord diagramD MajorD U U A chord diagramD MajorD U A chord diagramD MajorD A chord diagramD MajorD U U A chord diagramD MajorD U  A chord diagramD MajorD A chord diagramD MajorD U U A chord diagramD MajorD U  A chord diagramD MajorD A chord diagramD MajorD U U A chord diagramD MajorD U


Bridge:

e|---------------------------------------------------------------------------|
B|---------------------------------------------------------------------------|
G|---------------------------------------------------------------------------|
D|---------------------------------------------------------------------------|
A|---------5-4-----------5-4-4-4-4---------5-4-2-0-0-0-0-0-0-----------------|
E|-2-0-2-0-----0-2-0-2-0-----------2-0-2-0-----------------------------------|


e|---------------------------------------------------------------------------|
B|---------------------------------------------------------------------------|
G|---------------------------------------------------------------------------|
D|---------------------------------------------------------------------------|
A|---------5-4-----------5-4-4-4-4---------5-4-2-----------------------------|
E|-2-0-2-0-----0-2-0-2-0-----------2-0-2-0-------5-5-5-5----------------- ----|

e|---------------------------------------------------------------------------|
B|---------------------------------------------------------------------------|
G|-----7-6-----7-6-6-6-6-----7-6-4-2-2-2-2-2-2-------------------------------|
D|-4-5-7-6-4-5-7-6-6-6-6-4-5-7-6-4-2-2-2-2-2-2-------------------------------|
A|-4-5-5-4-4-5-5-4-4-4-4-4-5-5-4-2-0-0-0-0-0-0-------------------------------|
E|-2-3-----2-3-----------2-3-------------------------------------------------|

e|---------------------------------------------------------------------------|
B|---------------------------------------------------------------------------|
G|-----7-6-----7-5-6-6-6-----7-6-5-5-5-5-3-3-3-3-----------------------------|
D|-4-5-7-6-4-5-7-5-6-6-6-4-5-7-6-5-5-5-5-3-3-3-3-----------------------------|
A|-4-5-5-4-4-5-5-3-4-4-4-4-5-5-4-3-3-3-3-1-1-1-1-----------------------------|
E|-2-3-----2-3-----------2-3-------------------------------------------------|

↓ Add and view comments below ↓

What do you think about this song and these tabs?

Add your comments, questions, rant or a thumbs up below.

Almost there ...

Sign in to get your own page with links to favourite songs and more. You are just one click away...

Login with Facebook Login with Google