Log in

One click and you are in

Login with Facebook Login with Google

Why sign up and log in

Guitar Tabs Explorer
Greta Van Fleet bass tabs for Down to the river

Down To The River bass tab by Greta Van Fleet

Greta Van Fleet bass tabs for Down to the river

Bass tabs

Intro:

G|---------------------------------------------------------------------------|
D|---------------------------------------------------------------------------|
A|---------------------------------------------------------------------------|
E|-0-1-3----3------3-------3-------------------------------------------------|

G|-------------------------------------------------3/5-5-5-5-5-5-5-7---------|
D|---------------------------------------------------------------------------|
A|-1b--------1----------1--3----1--3--5--3--1--3-----------------------------|
E|-----3---------3-3-----3---------------------------------------------------|

G|---------------------------------------------------------------------------|
D|---------------------------------------------------------------------------|
A|-1b--------1---------1--3-----1--3--5--3--1--3---3-3-3-3-3-3-3--5----------|
E|----3----------3-3---------------------------------------------------------|

G|-------------------------------------------------3/5-5-3---5-5-3-----------|
D|---------------------------------------------------------5-------5---------|
A|-1b--------1----------1--3----1--3--5--3--1--3-----------------------------|
E|-----3---------3-3---------------------------------------------------------|

G|------------------------------------------------------------5--------------|
D|---------------------------------------------------------------------------|
A|-1b--------1---------1--3-----1--3--5--3--1--3--------1/3------------------|
E|----3----------3-3---------------------------------3-----------------------|

(Pre-verse)

G|---------------------------------------------------------------------------|
D|-5-------5------5--------5---5---------------------------------------------|
A|---------------------------------------------------------------------------|
E|---3-3-3---3--3---3-3-3----3---3-------------------------------------------|

G|---------------------------------------------------------------------------|
D|-4-------4------4--------4---4---------------------------------------------|
A|---------------------------------------------------------------------------|
E|---2-2-2---2--2---2-2-2----2---2-------------------------------------------|

G|---------------------------------------------------------------------------|
D|-3-------3------3--------3---3\--------------------------------------------|
A|---------------------------------------------------------------------------|
E|---1-1-1---1--1---1-1-1----1-----------------------------------------------|

G|---------------------------------------------------------------------------|
D|---------------------------------------------------------------------------|
A|-------1/3-------1/3-------------------------------------------------------|
E|-3--3------3--3------3-----------------------------------------------------|

Verse:

G|---------------------------------------------------------------------------|
D|-5-------5------5--------5---5---------------------------------------------|
A|---------------------------------------------------------------------------|
E|---3-3-3---3--3---3-3-3----3---3-------------------------------------------|

G|---------------------------------------------------------------------------|
D|-4-------4------4--------4---4---------------------------------------------|
A|---------------------------------------------------------------------------|
E|---2-2-2---2--2---2-2-2----2---2-------------------------------------------|

G|---------------------------------------------------------------------------|
D|-3-------3------3--------3---3---------------------------------------------|
A|---------------------------------------------------------------------------|
E|---1-1-1---1--1---1-1-1----1---1-------------------------------------------|

G|---------------------------------------------------------------------------|
D|---------------------------------------------------------------------------|
A|-------1/3-------1/3-------------------------------------------------------|
E|-3--3------3--3------3-----------------------------------------------------|

G|---------------------------------------------------------------------------|
D|-5-------5------5--------5---5---------------------------------------------|
A|---------------------------------------------------------------------------|
E|---3-3-3---3--3---3-3-3----3---3-------------------------------------------|

G|---------------------------------------------------------------------------|
D|-4--------4------4-------4---4---------------------------------------------|
A|---------------------------------------------------------------------------|
E|---2-2-2---2--2---2-2-2----2---2-------------------------------------------|

G|---------------------------------------------------------------------------|
D|-3-------3------3--------3---3---------------------------------------------|
A|---------------------------------------------------------------------------|
E|---1-1-1---1--1---1-1-1----1---1-------------------------------------------|

G|---------------------------------------------------------------------------|
D|---------------------------------------------------------------------------|
A|-------1/3-------1/3-------------------------------------------------------|
E|-3--3------3--3------3-----------------------------------------------------|

G|---------------------------------------------------------------------------|
D|-5--------5------5---------------------------------------------------------|
A|---------------------1---3---5---3/----------------------------------------|
E|---3-3-3---3--3---3--------------------------------------------------------|

G|---------------------------------------------------------------------------|
D|-4-------4------4---------4---4--------------------------------------------|
A|---------------------------------------------------------------------------|
E|---2-2-2---2--2---2-2-2----2---2-------------------------------------------|

G|---------------------------------------------------------------------------|
D|-3-------3------3--------3---3\--------------------------------------------|
A|---------------------------------------------------------------------------|
E|---1-1-1----1--1---1-1-1----1----------------------------------------------|

G|---------------------------------------------------------------------------|
D|---------------------------------------------------------------------------|
A|-------1/3-------1/3-------------------------------------------------------|
E|-3--3------3--3------3-----------------------------------------------------|


Pre-Chorus:

G|-------------------------------------------------3/5-5-5-5-3/5-5-5-3-------|
D|---------------------------------------------------------------------------|
A|-1b--------1----------1--3----1--3--5--3--1--3-----------------------------|
E|-----3---------3-3-----3---------------------------------------------------|

G|---------------------------------------------------------------------------|
D|---------------------------------------------------------------------------|
A|-1b--------1---------1--3-----1--3--5--3--1--3---3-3-3-3-3-3-3--5----------|
E|----3----------3-3---------------------------------------------------------|


Chorus:

G|-------------------------------------------------3/5-5-5-5-5-3-------------|
D|---------------------------------------------------------------5-----------|
A|-1b-------------------1--3----1--3--5--3--1--3-----------------------------|
E|-----3-------------3-------------------------------------------------------|

G|-------------------------------------------------3/5-5-5-5-5-5-5-7---------|
D|---------------------------------------------------------------------------|
A|-1b--------1----------1--3----1--3--5--3--1--3-----------------------------|
E|-----3---------3-3---------------------------------------------------------|

G|---------------------------------------------------------------------------|
D|---------------------------------------------------------------------------|
A|-1b--------1---------1--3-----1--3--5--3--1--3---3-3-3-3-3-3-3/10\3--------|
E|----3----------3-3---------------------------------------------------------|

G|------------------------------------------------------------/5-------------|
D|---------------------------------------------------------------------------|
A|-1b--------1----------1--3----1--3--5--3--1--3----3-3-3-3------------------|
E|-----3---------3-3---------------------------------------------------------|

G|---------------------------------------------------------------------------|
D|---------------------------------------------------------------------------|
A|-1b--------1---------1--3-----1--3--5--3--1--3---3-3-3-3-3-3-3/10\3--------|
E|----3----------3-3---------------------------------------------------------|

G|------------------------------------------------------------/5-5-5---------|
D|---------------------------------------------------------------------------|
A|-1b--------1----------1--3----1--3--5--3--1--3----3-3-3-3------------------|
E|-----3---------3-3---------------------------------------------------------|

Pre-Verse:

G|---------------------------------------------------------------------------|
D|-5--------5------5-------5---5---------------------------------------------|
A|---------------------------------------------------------------------------|
E|---3-3-3---3--3---3-3-3----3---3-------------------------------------------|

G|---------------------------------------------------------------------------|
D|-4-------4------4--------4---4---------------------------------------------|
A|---------------------------------------------------------------------------|
E|---2-2-2---2--2---2-2-2----2---2-------------------------------------------|

G|---------------------------------------------------------------------------|
D|-3-------3------3--------3---3\--------------------------------------------|
A|---------------------------------------------------------------------------|
E|---1-1-1---1--1---1-1-1----1-----------------------------------------------|

G|---------------------------------------------------------------------------|
D|---------------------------------------------------------------------------|
A|-------1/3-------1/3-------------------------------------------------------|
E|-3--3------3--3------3-----------------------------------------------------|


Verse:

G|---------------------------------------------------------------------------|
D|-5-------5------5--------5---5---------------------------------------------|
A|---------------------------------------------------------------------------|
E|---3-3-3---3--3---3-3-3----3---3-------------------------------------------|

G|---------------------------------------------------------------------------|
D|-4-------4------4----------------------------------------------------------|
E|--------------------------0-2-4--------------------------------------------|
E|---2-2-2---2--2---2-2-2----------------------------------------------------|

G|---------------------------------------------------------------------------|
D|-3-------3------3--------3---3---------------------------------------------|
A|---------------------------------------------------------------------------|
E|---1-1-1---1--1---1-1-1----1---1-------------------------------------------|

G|---------------------------------------------------------------------------|
D|---------------------------------------------------------------------------|
A|-------1/3-------1/3-------------------------------------------------------|
E|-3--3------3--3------3-----------------------------------------------------|

G|---------------------------------------------------------------------------|
D|-5--------5------5--------5---5--------------------------------------------|
A|---------------------------------------------------------------------------|
E|---3-3-3---3--3---3-3-3-----3---3------------------------------------------|

G|---------------------------------------------------------------------------|
D|-4-------4------4--------4---4---------------------------------------------|
A|---------------------------------------------------------------------------|
E|---2-2-2---2--2---2-2-2----2---2-------------------------------------------|

G|---------------------------------------------------------------------------|
D|-3-------3------3------3---------------------------------------------------|
A|---------------------------------------------------------------------------|
E|---1-1-1---1--1---1-1-1---1------------------------------------------------|

G|---------------------------------------------------------------------------|
D|---------------------------------------------------------------------------|
A|-------1/3-------1/3-------------------------------------------------------|
E|-3---------3---------3-----------------------------------------------------|

G|---------------------------------------------------------------------------|
D|-5--------5------5--------5---5--------------------------------------------|
A|---------------------------------------------------------------------------|
E|---3-3-3---3--3---3-3-3-----3---3------------------------------------------|

G|---------------------------------------------------------------------------|
D|-4-------4------4--------4---4---------------------------------------------|
A|---------------------------------------------------------------------------|
E|---2-2-2---2--2---2-2-2----2---2-------------------------------------------|

G|---------------------------------------------------------------------------|
D|-3-------3------3------3---------------------------------------------------|
A|---------------------------------------------------------------------------|
E|---1-1-1---1--1---1-1-1---1------------------------------------------------|

G|---------------------------------------------------------------------------|
D|---------------------------------------------------------------------------|
A|-------1/3-------1/3-------------------------------------------------------|
E|-3---------3---------3-----------------------------------------------------|


Pre-Chorus:

G|-------------------------------------------------3/5-5-5-5-3/5-5-5-3-------|
D|---------------------------------------------------------------------------|
A|-1b--------1----------1--3----1--3--5--3--1--3-----------------------------|
E|-----3---------3-3-----3---------------------------------------------------|

G|---------------------------------------------------------------------------|
D|---------------------------------------------------------------------------|
A|-1b--------1---------1--3-----1--3--5--3--1--3---3-3-3-3-3-3-3--5----------|
E|----3----------3-3---------------------------------------------------------|


Chorus:

G|-------------------------------------------------3/5-5-5-5-5-3-------------|
D|---------------------------------------------------------------5-----------|
A|-1b---------1---------1--3----1--3--5--3--1--3-----------------------------|
E|-----3----------3-3--------------------------------------------------------|

G|-------------------------------------------------3/5-5-5-5-5-5-5-7---------|
D|---------------------------------------------------------------------------|
A|-1b--------1----------1--3----1--3--5--3--1--3-----------------------------|
E|-----3---------3-3---------------------------------------------------------|

G|---------------------------------------------------------------------------|
D|---------------------------------------------------------------------------|
A|-1b--------1---------1--3-----1--3--5--3--1--3---3-3-3-3-3-3-3/10\3--------|
E|----3----------3-3---------------------------------------------------------|

G|---------------------------------------------------------------------------|
D|---------------------------------------------------------------------------|
A|-1b--------1----------1--3----1--3--5--3--1--3----3-3-3-3-3-3-3-5----------|
E|-----3---------3-3---------------------------------------------------------|

G|----------------------------------------------------3/5-5-5-5-5-5-5--------|
D|---------------------------------------------------------------------------|
A|-1b--------1---------1--3-----1--3--5--3--1--3-----------------------------|
E|----3----------3-3---------------------------------------------------------|

G|---------------------------------------------------------------------------|
D|---------------------------------------------------------------------------|
A|-1b--------1----------1--3----1--3--5--3--1--3----3-3-3-3-3-3-3-3----------|
E|-----3---------3-3---------------------------------------------------------|


Outro:

(Slowly decrease in speed in this section)

G|---------------------------------------------------------------------------|
D|-5-------5------5--------5---5---------------------------------------------|
A|---------------------------------------------------------------------------|
E|---3-3-3---3--3---3-3-3----3---3-------------------------------------------|

G|---------------------------------------------------------------------------|
D|-4-------4------4--------4---4---------------------------------------------|
A|---------------------------------------------------------------------------|
E|---2-2-2---2--2---2-2-2----2---2-----1-------------------------------------|

G|---------------------------------------------------------------------------|
D|---------------------------------------------------------------------------|
A|---------------------------------------------------------------------------|
E|-3-------------------------------------------------------------------------|


☠☠☠☠☠☠☠☠☠☠☠☠☠☠☠☠☠☠☠☠☠☠☠☠☠☠☠☠☠☠☠☠☠☠☠☠

| b  Bend
| /  Slide up
| \  Slide down

☠☠☠☠☠☠☠☠☠☠☠☠☠☠☠☠☠☠☠☠☠☠☠☠☠☠☠☠☠☠☠☠☠☠☠☠

Almost there ...

Sign in to get your own page with links to favourite songs and more. You are just one click away...

Login with Facebook Login with Google