Log in

One click and you are in

Login with Facebook Login with Google

Why sign up and log in

Guitar Tabs Explorer
Greg Puciato bass tabs for Down when im not

Bass tabs

Tuning: Drop D (D A D G)



Verse/Chorus riff:

G|-----------------------------------------------------------------|
D|-----------------------------------------------------------------|
A|-----------------------------------------------------------------|
D|-6-6-6-6-6-6-6-6-6-6-6-6-6-6-6-6-4-4-4-4-4-4-4-4-4-4-4-4-4-4-4-4-|

G|-----------------------------------------------------------------|
D|-----------------------------------------------------------------|
A|-----------------------------------------------------------------|
D|-8-8-8-8-8-8-8-8-8-8-8-8-8-8-8-8-8-8-8-8-8-8-8-8-8-8-8-8-8-8-8-8-|

repeat section as needed


Bridge:

G|-----------------|
D|-----------------|
A|-----------------|
D|-8-8-8-8-8-8-8-8-|

G|-----------------------------------------------------------------|
D|-----------------------------------------------------------------|
A|-----------------------------------------------------------------| x4, let last note on the last
D|-1-1-1-1-1-1-3-3-3-3-3-3-3-3-3-3-6-6-6-6-6-6-9-9-9-9-9-9-9-9-9-9-|   repeat ring out

-------------------------
back to chorus riff here
-------------------------


Outro:

G|----------------------|
D|----------------------|
A|----------------------|
D|-8-8-8-8-8-8-8-8-8-8\-|

************************************

| \ Slide down

************************************

Almost there ...

Sign in to get your own page with links to favourite songs and more. You are just one click away...

Login with Facebook Login with Google