Log in

One click and you are in

Login with Facebook Login with Google

Why sign up and log in

Guitar Tabs Explorer
Green Day bass tabs for Youngblood

Bass tabs

Chorus x2
Gb|-----------------|-----------------|-----------------|-----------------|
Db|-----------------|-----------------|-----------------|-----------------|
Ab|-5-5-5-----------|-5-5-5-----------|-5-5-5-----------|-------2-2-------|
Eb|-------3-3-5-5-5-|-------3-3-5-5-5-|-------3-3-5-5-5-|-3-3-3-----5-5-5-|
Verse
Rest 2 bars, then:
Gb|-----------------|----------------|-----------------|-----------------|
Db|-----------------|5---4-----------|-----------------|-----------------|
Ab|-5---5-5---------|------7-5-------|-5---5-5---------|-5---5-5---------|
Eb|---------5---5-5-|----------5-7-5-|---------5---5-5-|---------5---5-5-|

Gb|-----------------|----------------|
Db|-----------------|-5-5-4----------|
Ab|-5---5-5---------|-------7--------|
Eb|---------5---5-5-|----------------|


Chorus x1
Gb|-----------------|-----------------|-----------------|-----------------|
Db|-----------------|-----------------|-----------------|-----------------|
Ab|-5-5-5-----------|-5-5-5-----------|-5-5-5-----------|-------2-2-------|
Eb|-------3-3-5-5-5-|-------3-3-5-5-5-|-------3-3-5-5-5-|-3-3-3-----5-5-5-|


Verse
Gb|-----------------|-----------------|-----------------|-----------------|
Db|-----------------|-----------------|-----------------|-5---4-----------|
Ab|-5---5-5---------|-5---5-5---------|-5---5-5---------|-------7-5-------|
Eb|---------5---5-5-|---------5---5-5-|---------5---5-5-|-----------5-7-5-|

Gb|-----------------|-----------------|-----------------|-----------------|
Db|-----------------|-----------------|-----------------|-5---4-----------|
Ab|-5---5-5---------|-5---5-5---------|-5---5-5---------|-------7-5-----4-|
Eb|---------5---5-5-|---------5---5-5-|---------5---5-5-|-----------5-7---|

Chorus x2
Gb|-----------------|-----------------|-----------------|-----------------|
Db|-----------------|-----------------|-----------------|-----------------|
Ab|-5-5-5-----------|-5-5-5-----------|-5-5-5-----------|-------2-2-------|
Eb|-------3-3-5-5-5-|-------3-3-5-5-5-|-------3-3-5-5-5-|-3-3-3-----5-5-5-|


Bridge
Gb|-----------------|-----------------|-----------------|-----------------|
Db|-----------------|-----------------|-------------7---|-------7/9-7-5---|
Ab|-------7---------|---------7-5-4---|-------7---------|---------------5-|
Eb|-0-----------0-0-|-0-0-0-0-------7-|-5---------------|-----------------|

Gb|-------------9---|---999-----------|-----------------|-----------------|
Db|-------9---------|-------9---------|-----------------|-----------------|
Ab|-7---------------|---------7-5-----|-----------5-----|-----------5-----|
Eb|-----------------|---------------5-|---------------5-|---------------5-|

Gb|-----------------|-----------------|
Db|-----------------|-----------------|
Ab|-----------------|-----------------|
Eb|-------5-5-5-5-5-|-5-5-5-5-5-------|


Solo x2
Gb|-----------------|-----------------|-----------------|-----------------|
Db|-----------------|-----------------|-----------------|-----------------|
Ab|-5-5-5-----------|-5-5-5-----------|-5-5-5-----------|-------2-2-------|
Eb|-------3-3-5-5-5-|-------3-3-5-5-5-|-------3-3-5-5-5-|-3-3-3-----5-5-5-|


Break
Rest 8 bars, then:
Gb|-----------------|-----------------|-----------------|-----------------|
Db|---------7-7-7-7-|---------7-7-7-7-|---------7-7-7-7-|-5---------------|
Ab|-5---5-5---------|-5---5-5---------|-5---5-5---------|-----------------|
Eb|-----------------|-----------------|-----------------|-----------------|


Chorus x2
Gb|-----------------|-----------------|-----------------|-----------------|
Db|-----------------|-----------------|-----------------|-----------------|
Ab|-5-5-5-----------|-5-5-5-----------|-5-5-5-----------|-------2-2-------|
Eb|-------3-3-5-5-5-|-------3-3-5-5-5-|-------3-3-5-5-5-|-3-3-3-----5-5-5-|


Outro x2
Gb|-----------------|-----------------|-----------------|-----------------|
Db|-----------------|-----------------|-----------------|-----------------|
Ab|-7-7-7-----------|-7-7-7-----------|-7-7-7-----------|-------4-4-------|
Eb|-------5-5-7-7-7-|-------5-5-7-7-7-|-------5-5-7-7-7-|-5-5-5-----7-7-7-|

End
Gb|-----------------|
Db|-----------------|
Ab|-7---------------|

Almost there ...

Sign in to get your own page with links to favourite songs and more. You are just one click away...

Login with Facebook Login with Google