Log in

One click and you are in

Login with Facebook Login with Google

Why sign up and log in

Guitar Tabs Explorer
Green Day guitar tabs for Wake me up when september ends (Ver. 2)

Wake Me Up When September Ends tab by Green Day (Ver. 2)

Green Day guitar tabs for Wake me up when september ends (Ver. 2)

Guitar tabs

Tuning: Standard (E A D G B E)


The solo's in there too.


Intro:

e|-------------------|
B|-------3-----3-----|
G|-----0-----0-------|
D|---5-----5---------| x4
A|-------------------|
E|-------------------|


Solo:

e|----------------------------------------------------------------------------------------------------------|
B|--------12-----12--12-----12-----12--12-----13-----13--13-15-15-15-15-15-15-15-15--15-15-15-15-15-15-15-15|
G|---12-12--12-12--12--11-11--11-11--11--12-12--12-12--12---12-12-12-12-12-12-12-12--11-11-11-11-11-11-11-11|
D|----------------------------------------------------------------------------------------------------------|
A|----------------------------------------------------------------------------------------------------------|
E|----------------------------------------------------------------------------------------------------------|

Other versions of Wake Me Up When September Ends

Wake me up when september endsChords
Wake me up when september ends (Ver. 2)Chords
Wake me up when september ends (Ver. 3)Chords
Wake me up when september ends ukuleleChords
Wake me up when september endsTabs
Wake me up when september ends - introTabs
Wake me up when september ends1 - introTabs

Almost there ...

Sign in to get your own page with links to favourite songs and more. You are just one click away...

Login with Facebook Login with Google