Log in

One click and you are in

Login with Facebook Login with Google

Why sign up and log in

Guitar Tabs Explorer
Green Day bass tabs for Too dumb to die

Bass tabs

Tabbed By:Josecar
Album:Revolution Radio
Band:Green day

Intro:

G|------------------|
D|------------------|
A|-----4--5---------| X5
E|--5--------5------|


Verse:

G|---------------------------------------------------------------------------|
D|---------------------------------------------------------------------------|
A|----------------------4-4-4-4----------------------------------------------| X2
E|--5-5-5-5-5--5-5-5-5------------2-2-2-2-2--2-2-2-2--0-0-0-0----------------|

G|---------------------------------------------------------------------------|
D|---------------------------------------------------------------------------|
A|------------4--4--4-4-4-4-4------------------------------------------------| X4
E|--5-5--5-5-------------------2-2--2-2--2--2--0-0-0-0-0---------------------|


Chorus:

G|---------------------------------------------------------------------------|
D|---------------------------------------------------------------------------|
A|----------------------------------------5-5-5-5-5-5-5-5-7-7-7-7-7-7-7-7----| X4
E|--5-5-5-5-5-5-5-5-5-5-5-5-5-5-5-5-5-5-5------------------------------------|



Verse 2:

G|---------------------------------------------------------------------------|
D|---------------------------------------------------------------------------|
A|----------------------4-4-4-4----------------------------------------------| X4
E|--5-5-5-5-5--5-5-5-5------------2-2-2-2-2--2-2-2-2--0-0-0-0----------------|

G|---------------------------------------------------------------------------|
D|---------------------------------------------------------------------------|
A|------------4--4--4-4-4-4-4------------------------------------------------| X2
E|--5-5--5-5-------------------2-2--2-2--2--2--0-0-0-0-0---------------------|


Chorus 2:

G|---------------------------------------------------------------------------|
D|---------------------------------------------------------------------------|
A|----------------------------------------5-5-5-5-5-5-5-5-7-7-7-7-7-7-7-7----| X4
E|--5-5-5-5-5-5-5-5-5-5-5-5-5-5-5-5-5-5-5------------------------------------|


Outro:

G|---------------------------------------------------------------------------|
D|---------------------------------------------------------------------------|
A|--------------------------4-4-4-4------------------------------------------|X2
E|--5-5-5-5-5-5-5-5-5-5-5-5---------2-2-2-2-2-2-2-2-2-2-2-2-0-0-0-0----------|


Chorus 2:

G|---------------------------------------------------------------------------|
D|---------------------------------------------------------------------------|
A|----------------------------------------5-5-5-5-5-5-5-5-7-7-7-7-7-7-7-7----| X4
E|--5-5-5-5-5-5-5-5-5-5-5-5-5-5-5-5-5-5-5------------------------------------|


END:

G|---------------------------------------------------------------------------|
D|---------------------------------------------------------------------------|
A|----------------------4-4-4-4----------------------------------------------| X4
E|--5-5-5-5-5--5-5-5-5------------2-2-2-2-2--2-2-2-2--0-0-0-0----------------|

Almost there ...

Sign in to get your own page with links to favourite songs and more. You are just one click away...

Login with Facebook Login with Google