Log in

One click and you are in

Login with Facebook Login with Google

Why sign up and log in

Guitar Tabs Explorer
Green Day bass tabs for Sugar youth

Bass tabs

Guitar Intro:

G|--------------------------------------------|
D|--------------------------------------------|
A|--------------2-2-2-2-2-0--0----------------|
E|2-2-2-2-2-0--0---------------2-2-2-2-2-0--0-|

Verse 1:

G|--------------------------------------------------------------------|
D|----------------------------------7-7-7-7-7-7-7-7-9-9-9-9-9-9-9-9---|
A|9-9-9-9-9-9-9-9-9-9-9-9-9-9-9-9-------------------------------------|
E|--------------------------------------------------------------------| x4


Chorus:

G|------------------------------------------------------|
D|------------------------------------------------------|
A|0-0-0-0-0-0-0-0-5-5-5-5-5-5-5-5-----------------------|
E|------------------------------------------------------| x4

G|------------------------------------------------------------|
D|------------------------------------------------------------|
A|4--4--4--4--4--4--4--4--9--9-9--7-7-7--5--5-5-5-5-5-5-5-----|
E|------------------------------------------------------------|

G|------------------------------------------------------|
D|------------------------------------------------------|
A|0-0-0-0-0-0-0-0-5-5-5-5-5-5-5-5-----------------------|
E|------------------------------------------------------| x2

G|--------------------------------------------------|
D|--------------------------------------------------|
A|0-0-0-0-0-0-0-0-5-5-5-5---------------------------|
E|--------------------------------------------------|

G|--------------------------------------------|
D|--------------------------------------------|
A|--------------2-2-2-2-2-0--0----------------|
E|2-2-2-2-2-0--0---------------2-2-2-2-2-0--0-|


Verse 2:

G|------------------------------|
D|------------------------------|
A|9-9-9-9-9-7-------------------|
E|------------------------------| x4

G|--------------------------------------------------------------------|
D|----------------------------------7-7-7-7-7-7-7-7-9-9-9-9-9-9-9-9---|
A|9-9-9-9-9-9-9-9-9-9-9-9-9-9-9-9-------------------------------------|
E|--------------------------------------------------------------------| x2


Chorus:

G|------------------------------------------------------|
D|------------------------------------------------------|
A|0-0-0-0-0-0-0-0-5-5-5-5-5-5-5-5-----------------------|
E|------------------------------------------------------| x4

G|------------------------------------------------------------|
D|------------------------------------------------------------|
A|4--4--4--4--4--4--4--4--9--9-9--7-7-7--5--5-5-5-5-5-5-5-----|
E|------------------------------------------------------------|

G|------------------------------------------------------|
D|------------------------------------------------------|
A|0-0-0-0-0-0-0-0-5-5-5-5-5-5-5-5-----------------------|
E|------------------------------------------------------| x2

G|--------------------------------------------------|
D|--------------------------------------------------|
A|0-0-0-0-0-0-0-0-5-5-5-5---------------------------|
E|--------------------------------------------------|

G|--------------------------------------------|
D|--------------------------------------------|
A|--------------2-2-2-2-2-0--0----------------|
E|2-2-2-2-2-0--0---------------2-2-2-2-2-0--0-|

Almost there ...

Sign in to get your own page with links to favourite songs and more. You are just one click away...

Login with Facebook Login with Google