Log in

One click and you are in

Login with Facebook Login with Google

Why sign up and log in

Guitar Tabs Explorer
Green Day bass tabs for Peacemaker

Bass tabs

-------------------------------------------------------------------------------
			   Peacemaker-Green Day
-------------------------------------------------------------------------------

Tabbed By :Stjimmy34

Tuning:Standard

Verse
G|------------------|--------|-----------------|--------|--------------------|
D|------------------|--------|-----------------|--------|--------------------|
A|-222-0---0--(x10)-|--------|-222-0---0--(x8)-|--------|-222-0---0-(x2)-----|
E|-------2----------|-2(x60)-|-------2---------|-2x(60)-|-------2------------|


Chorus
G|---------------------------------------------------------------------------|
D|---------------------------------------------------------------------------|
A|---------2(x30)----------2(x16)----------2(x16)----------------------------|
E|-2(x30)----------0(x16)----------2(x16)------------------------------------|


Verse 2
G|------------------|--------|-----------------|--------|--------------------|
D|------------------|--------|-----------------|--------|--------------------|
A|-222-0---0--(x6)--|--------|-222-0---0--(x8)-|--------|-222-0---0-(x2)-----|
E|-------2----------|-2(x60)-|-------2---------|-2x(60)-|-------2------------|


Chorus

Bass just plays chorus under guitar solo


Verse/Outro
G|------------------|--------|-----------------|--------|--------------------|
D|------------------|--------|-----------------|--------|--------------------|
A|-222-0---0--(x6)--|--------|-222-0---0--(x2)-|--------|-222-0---0-(x2)-----|
E|-------2----------|-2(x60)-|-------2---------|-2x(15)-|-------2------------|

G|--------|-----|------------------------------------------------------------|
D|--------|-----|------------------------------------------------------------|
A|--------|-----|-222-0---0--222-0---0--222-0---0-2--2~----------------------|
E|-2(x15)-|-2~--|-------2----------2----------2------------------------------|


| / slide up
| \ slide down
| h hammer-on
| p pull-off
| ~ vibrato
| + harmonic
| x Mute note

Almost there ...

Sign in to get your own page with links to favourite songs and more. You are just one click away...

Login with Facebook Login with Google