Log in

One click and you are in

Login with Facebook Login with Google

Why sign up and log in

Guitar Tabs Explorer
Green Day guitar tabs for Oh yeah

Guitar tabs with lyrics

Intro:

e|---------------------------------------------------------------------------|
B|---------------------------------------------------------------------------|
G|---------------------------------------------------------------------------|
D|--------------------------*drum only*--------------------------------------|
A|---------------------------------------------------------------------------|
E|---------------------------------------------------------------------------|

Uh-hu-hu-huh, ah-ha-ha (Yeah)

e|---------------------------------------------------------------------------|
B|---------------------------------------------------------------------------|
G|---------------------------------------------------------------------------|
D|-----------------------------------------------------2---------------------|
A|-----------0----------2--2-2-----------0-0---------2---2-0-----------------|
E|----2-2--2---------0-----------2-2--2----------0-0-------------------------|

Verse 1:


I'm in the crowd full of angels and demons

I'm looking out for the jingoes and heathens

e|---------------------------------------------------------------------------|
B|---------------------------------------------------------------------------|
G|---------------------------------------------------------------------------|
D|-----------------------------------------------------2---------------------|
A|-----------0----------2--2-2-----------0-0---------2---2-0-----------------|
E|----2-2--2---------0-----------2-2--2----------0-0-------------------------|


Nobody move and nobody gonna get hurt

Reach for the sky with your face in the dirt (Yeah)

e|---------------------------------------------------------------------------|
B|---------------------------------------------------------------------------|
G|---------------------------------------------------------------------------|
D|-----------------------------------------------------2---------------------|
A|-----------0----------2--2-2-----------0-0---------2---2-0-----------------|
E|----2-2--2---------0-----------2-2--2----------0-0-------------------------|



Chorus:

Everybody is a star (Star)

Got my money and I'm feeling kinda low (Feeling kinda low)

e|---------------------------------------------------------------------------|
B|---------------------------------------------------------------------------|
G|---------------------------------------------------------------------------|
D|---4-----4-4---------------------------------------------------------------|
A|---4-----4-4----*repeat*-------------------- ------------------------------|
E|---2-----2-2---------------------------------------------------------------|

Everybody got a scar (Scar)

Ain't it funny how we're running out of hope?

e|---------------------------------------------------------------------------|
B|---------------------------------------------------------------------------|
G|---------------------------------------------------------------------------|
D|---4-----4-4---------------------------------------------------------------|
A|---4-----4-4----*repeat*-------------------- ------------------------------|
E|---2-----2-2---------------------------------------------------------------|

Post-Chorus:

Yeah, oh yeah, oh yeah (Ain't it funny, ain't it funny)

Yeah, oh yeah, oh yeah

(Uh-hu-hu-huh, ah-ha-ha)

e|---------------------------------------------------------------------------|
B|---------------------------------------------------------------------------|
G|---------------------------------------------------------------------------|
D|-----------------------------------------------------2---------------------|
A|-----------0----------2--2-2-----------0-0---------2---2-0-----------------|
E|----2-2--2---------0-----------2-2--2----------0-0-------------------------|


Verse 2:

I got blood on my hands in my pockets

That's what you get turning bullets into rockets (Rock—)

e|---------------------------------------------------------------------------|
B|---------------------------------------------------------------------------|
G|---------------------------------------------------------------------------|
D|-----------------------------------------------------2---------------------|
A|-----------0----------2--2-2-----------0-0---------2---2-0-----------------|
E|----2-2--2---------0-----------2-2--2----------0-0-------------------------|


I am a kid of a bad education

The shooting star of lowered expectation

e|---------------------------------------------------------------------------|
B|---------------------------------------------------------------------------|
G|---------------------------------------------------------------------------|
D|-----------------------------------------------------2---------------------|
A|-----------0----------2--2-2-----------0-0---------2---2-0-----------------|
E|----2-2--2---------0-----------2-2--2----------0-0-------------------------|


Chorus:

Everybody is a star (Star)

Got my money and I'm feeling kinda low (Feeling kinda low)

e|---------------------------------------------------------------------------|
B|---------------------------------------------------------------------------|
G|---------------------------------------------------------------------------|
D|---4-----4-4---------------------------------------------------------------|
A|---4-----4-4----*repeat*-------------------- ------------------------------|
E|---2-----2-2---------------------------------------------------------------|

Everybody got a scar (Scar)

Ain't it funny how we're running out of hope?

e|---------------------------------------------------------------------------|
B|---------------------------------------------------------------------------|
G|---------------------------------------------------------------------------|
D|---4-----4-4---------------------------------------------------------------|
A|---4-----4-4----*repeat*-------------------- ------------------------------|
E|---2-----2-2---------------------------------------------------------------|

Post-Chorus:

Yeah, oh yeah, oh yeah (Ain't it funny, ain't it funny)

Yeah, oh yeah, oh yeah

(Uh-hu-hu-huh, ah-ha-ha)

e|---------------------------------------------------------------------------|
B|---------------------------------------------------------------------------|
G|---------------------------------------------------------------------------|
D|-----------------------------------------------------2---------------------|
A|-----------0----------2--2-2-----------0-0---------2---2-0-----------------|
E|----2-2--2---------0-----------2-2--2----------0-0-------------------------|


Verse 3:

I'm just a face in the crowd of spectators

To the sound of the voice of a traitor

e|---------------------------------------------------------------------------|
B|---------------------------------------------------------------------------|
G|---------------------------------------------------------------------------|
D|---------------------------------------------------------------------------|
A|---------------------------------------------------------------------------|
E|---------------------------------------------------------------------------|

Dirty looks and I'm looking for a payback

Burning books in a bulletproof backpack

e|---------------------------------------------------------------------------|
B|---------------------------------------------------------------------------|
G|-----------------------------------------------11------11-11---------------|
D|-----------------------------------------------11------11-11---------------|
A|-----------------------------------------------9-------9--9----------------|
E|---------------------------------------------------------------------------|

(im a little unsure about this part, but you can barely hear the guitar anyways. It happens right after Billie
says payback)


Chorus:

Everybody is a star (Star)

Got my money and I'm feeling kinda low (Feeling kinda low)

e|---------------------------------------------------------------------------|
B|---------------------------------------------------------------------------|
G|---------------------------------------------------------------------------|
D|---4-----4-4---------------------------------------------------------------|
A|---4-----4-4----*repeat*-------------------- ------------------------------|
E|---2-----2-2---------------------------------------------------------------|

Everybody got a scar (Scar)

Ain't it funny how we're running out of hope?

e|---------------------------------------------------------------------------|
B|---------------------------------------------------------------------------|
G|---------------------------------------------------------------------------|
D|---4-----4-4---------------------------------------------------------------|
A|---4-----4-4----*repeat*-------------------- ------------------------------|
E|---2-----2-2---------------------------------------------------------------|

Post-Chorus:

Yeah, oh yeah, oh yeah (Ain't it funny, ain't it funny)

Yeah, oh yeah, oh yeah

e|---------------------------------------------------------------------------|
B|---------------------------------------------------------------------------|
G|---------------------------------------------------------------------------|
D|---4-4-4-4-4-4-4-4---------------------------------------------------------|
A|---4-4-4-4-4-4-4---*repeat*------------------------------------------------|
E|---2-2-2-2-2-2-2-----------------------------------------------------------|

Other versions of Oh Yeah

Oh yeahChords

Almost there ...

Sign in to get your own page with links to favourite songs and more. You are just one click away...

Login with Facebook Login with Google