Log in

One click and you are in

Login with Facebook Login with Google

Why sign up and log in

Guitar Tabs Explorer
Green Day bass tabs for Last night on earth

Bass tabs

-------------------------------------------------------------------------------
			Last Night on Earth-Green Day
-------------------------------------------------------------------------------
Tabbed By : Stjimmy34

Tuning:Standard

This should be pretty easy for everyone

Bass doesn't play anything until Billie starts singing
Verse x2
G|---------------------------------------------------------------------------|
D|-7~----7~----7~----7~----------------7~----7~------------------------------|
A|-------------------------5~----5~------------------------------------------|
E|---------------------------------------------------------------------------|


Chorus
G|----------------------------|----------------------------------------------|
D|-------------7~----7~-------|-------------------------/12h14p12~-----------|
A|-5~----5~--------------(x2)-|-12~--10~--9~--7~--5~-------------------------|
E|----------------------------|----------------------------------------------|


Verse x3


Chorus


Verse x2


Chorus


| / slide up
| \ slide down
| h hammer-on
| p pull-off
| ~ vibrato
| + harmonic
| x Mute note

Almost there ...

Sign in to get your own page with links to favourite songs and more. You are just one click away...

Login with Facebook Login with Google