Log in

One click and you are in

Login with Facebook Login with Google

Why sign up and log in

Guitar Tabs Explorer
Green Day bass tabs for I was a teenage teenager

I Was A Teenage Teenager bass tab by Green Day

Green Day bass tabs for I was a teenage teenager

Bass tabs

Tuning: Half-Step Down (Eb Ab Db Gb)



Intro + Verse 1 (palm mute)
G|---------------------------------------|
D|---------------------------------------|
A|---------------------------------------|
E|-5-5-5-5-5-5-0-0-2-2-2-2-2-0-0-0-------| (x10)
Chorus:
G|---------------------------------------------------------------------|
D|---------------------------------------------------------------------|
A|----------------------------------5-5-5-5-5-5-5-5-7-7-7-7-7-7-7-7----|
E|-5-5-5-5-5-5-5-5-5-5-5-5-5-5-5-5-------------------------------------| (x4)

G|----------------------------------------|
D|----------------------------------------|
A|----------------------------------------|
E|-5-5-5-5-5---0---0-2-2-2-2-0-0-0--------| (x2)


Verse 2:
G|------------------------------------|
D|------------------------------------|
A|--------------7-7-9-9-9-9-9-7-7-7---|
E|-5-5-5-5-5-5------------------------| (x8)


Chorus:
G|---------------------------------------------------------------------|
D|---------------------------------------------------------------------|
A|----------------------------------5-5-5-5-5-5-5-5-7-7-7-7-7-7-7-7----|
E|-5-5-5-5-5-5-5-5-5-5-5-5-5-5-5-5-------------------------------------| (x4)

G|----------------------------------------|
D|----------------------------------------|
A|----------------------------------------|
E|-5-5-5-5-5---0---0-2-2-2-2-0-0-0--------| (x2)


Solo:
G|---------------------------------------------------------------------|
D|---------------------------------------------------------------------|
A|----------------------------------5-5-5-5-5-5-5-5-7-7-7-7-7-7-7-7----|
E|-5-5-5-5-5-5-5-5-5-5-5-5-5-5-5-5-------------------------------------| (x2)


Chorus:
G|---------------------------------------------------------------------|
D|---------------------------------------------------------------------|
A|----------------------------------5-5-5-5-5-5-5-5-7-7-7-7-7-7-7-7----|
E|-5-5-5-5-5-5-5-5-5-5-5-5-5-5-5-5-------------------------------------| (x4)

End
G|----------------------------------------|
D|----------------------------------------|
A|----------------------------------------|
E|-5-5-5-5-5---0---0-2-2-2-2-0-0----------|

Almost there ...

Sign in to get your own page with links to favourite songs and more. You are just one click away...

Login with Facebook Login with Google