Log in

One click and you are in

Login with Facebook Login with Google

Why sign up and log in

Guitar Tabs Explorer
Green Day bass tabs for Fod

Bass tabs

Album: Dookie
Tabbed By: Scott Sherman
Tune: E to Eb

Main-5x
G------------------|
D------------------|
A-554-----554------|
E----5-555---3-333-|

Main-Out
G----------------------|
D----------------------|
A-554-----554----------|
E----5-555---3-3333333-|
Verse
G------------------------------------------------------------------>
D------------------------------------------------------------------>
A-7-77779---------5-55557---------7-77779---------5-550505-5555555->
E--------3-333-333-------5-55-5577-------3-333-333----------------->

>--------------------------------------------------------------|
>--------------------------------------------------------------|
>-7-77779---------5-55557---------7-77779---------5-5555555555-|
>--------3-333-333-------5-55-5577-------3-333-333-------------|

THEN Play Main-7x, then…


Outro
G--------------|
D--------------|
A-554-----554--|
E----5-555---3-|
END
Comments or corrections mail me at shermdog17@yahoo.com

Almost there ...

Sign in to get your own page with links to favourite songs and more. You are just one click away...

Login with Facebook Login with Google