Guitar Tabs Explorer
Green Day guitar tabs for East jesus nowhere

East Jesus Nowhere tab


Be the first to rate

East Jesus Nowhere tab by Green Day

Solo tabs

Print

FULL SONG TAB:


e|----------------------------------------------12----12-14-------------12-|
B|-----------------------10---10-12-13----12-------12-------15----15-------|
G|--9---9-11-12----12-------9----------12----11----------------12----12----|
D|----9---------12----12---------------------------------------------------|
A|-------------------------------------------------------------------------|
E|-------------------------------------------------------------------------|

e|----12-14-15----14-12~~~-------------------------------------------------|
B|-12----------15----------------------------------------------------------|
G|-------------------------------------------------------------------------|
D|-------------------------------------------------------------------------|
A|-------------------------------------------------------------------------|
E|-------------------------------------------------------------------------|

Other versions of East Jesus Nowhere

- East Jesus nowhereChords
- East Jesus nowhereTabs

Comment this song and these solo tabs

Do you have corrections, comments on the solo tabs, thoughts about the song or a message to the author? Write them below.