Log in

One click and you are in

Login with Facebook Login with Google

Why sign up and log in

Guitar Tabs Explorer
Green Day bass tabs for East jesus nowhere

Bass tabs

-------------------------------------------------------------------------------
			 East Jesus Nowhere-Green Day
-------------------------------------------------------------------------------

Tabbed By : Stjimmy34

Tuning:Standard

Bass comes in after guitar plays intro 4 times
Intro
G|-------------xx-xx-xx------------------------------------------------------|
D|-------------xx-xx-xx-(X3)-------------------------------------------------|
A|-7/10/7/5/7--xx-xx-xx------7/10/7/5/7\-------------------------------------|
E|-------------xx-xx-xx------------------------------------------------------|


Verse
G|-------xx-xx-xx-------|-------------xx-xx-xx-------------------------------|
D|-------xx-xx-xx--(X4)-|-------------xx-xx-xx-(X3)--------------------------|
A|-5---7-xx-xx-xx-------|--7/10/7/5/7-xx-xx-xx------7/10/7/5/7\--------------|
E|---5---xx-xx-xx-------|-------------xx-xx-xx-------------------------------|

G|------------------------|--------------------------------------------------|
D|-------------------(X3)-|--------------------------------------------------|
A|-5----------------------|--5------------55555555---------------------------|
E|---5-777777777777-------|----5-77777777------------------------------------|


Chorus
G|---------------------------------------------------------------------------|
D|---------------------------------------------------------------------------|
A|---------------000000-333-222----------------000000-333-555----------------|
E|-000000-333333-----------------000000-333333-------------------------------|


Intro plus first part of verse
G|-------------xx-xx-xx------------------------------------------------------|
D|-------------xx-xx-xx-(X3)-------------------------------------------------|
A|-7/10/7/5/7--xx-xx-xx------7/10/7/5/7\--5----------------------------------|
E|-------------xx-xx-xx---------------------5--------------------------------|


Bass solo (I guess you can call it that)
G|----------------------------------------------------------------------------|
D|-------------------------1-1p0---------1-1p0--2-2-222-----------------1-1p0-|
A|------------------2-2-222------2-2-222---------------0-------0-2-2-222------|
E|-0-0-00023-3-3333-------------------------------------3-3-333---------------|

G|---------------------------------------------------------------------------|
D|--------1-0-------------------------1-1p0----------------------------------|
A|-2-2-222---------------------2-2-222------2--------------------------------|
E|------------0-0-00023-3-3333-----------------------------------------------|


Verse 2
G|-------xx-xx-xx------|-----------------------------------------------------|
D|-------xx-xx-xx-(X3)-|-----------------------------------------------------|
A|-5-----xx-xx-xx------|--5----------555555----------------------------------|
E|---5-7-xx-xx-xx------|----5-777777-----------------------------------------|


Chorus

First part of the intro four times

 "Don't test me"
G|----------------------|----------------------------------------------------|
D|----------------------|----------------------------------------------------|
A|-777777777777777-(x3)-|-7--7--7--------------------------------------------|
E|----------------------|----------------------------------------------------|


Verse 2 again


Chorus

Interlude x4
G|---------------------------------------------------------------------------|
D|-------2---2-3---3-2--2----------------------------------------------------|
A|-----2---2-----2--------2--------------------------------------------------|
E|-0-------------------------------------------------------------------------|


Outro
G|-------------xx-xx-xx------------------------------------------------------|
D|-------------xx-xx-xx-(X3)-------------------------------------------------|
A|--7/10/7/5/7-xx-xx-xx------7/10/7/5/7\--5---7----7777----------------------|
E|-------------xx-xx-xx---------------------5--------------------------------|



| / slide up
| \ slide down
| h hammer-on
| p pull-off
| ~ vibrato
| + harmonic
| x Mute note

Almost there ...

Sign in to get your own page with links to favourite songs and more. You are just one click away...

Login with Facebook Login with Google