Log in

One click and you are in

Login with Facebook Login with Google

Why sign up and log in

Guitar Tabs Explorer
Green Day tabs for Dont wanna fall in love

Guitar tabs

Band: Green Day
Album: Shenanigans
Tabbed By: Randy

Standard Tuning (EADGBE)

Listen to song for rhythm
Verse 1
-----------------------------------------------------
-----------------------------------------------------
--888888888888888888888888888888888888888888888888---
--888888888888888888888888888888888888888888888888---
--666666666666666666666666666666666666666666666666---
-----------------------------------------------------


Prechorus
-----------------------------------------------------
-----------------------------------------------------
--------------------------888888888888888888888888---
--6666666666666666666666--888888888888888888888888---
--6666666666666666666666--666666666666666666666666---
--4444444444444444444444-----------------------------


Chorus
-----------------------------------------------------
-----------------------------------------------------
-----------------------------------------------------
--8888888888888888888888--6--------------------------
--8888888888888888888888--6--------------------------
--6666666666666666666666--4--------------------------

Verse 2
-----------------------------------------------------
-----------------------------------------------------
--888888888888888888888888888888888888888888888888---
--888888888888888888888888888888888888888888888888---
--666666666666666666666666666666666666666666666666---
-----------------------------------------------------


Prechorus
-----------------------------------------------------
-----------------------------------------------------
--------------------------888888888888888888888888---
--6666666666666666666666--888888888888888888888888---
--6666666666666666666666--666666666666666666666666---
--4444444444444444444444-----------------------------


Chorus
-----------------------------------------------------
-----------------------------------------------------
-----------------------------------------------------
--8888888888888888888888--6--------------------------
--8888888888888888888888--6--------------------------
--6666666666666666666666--4--------------------------


Solo
-----------------------------------------------------
-----------------------------------------------------
-----------------------------------------------------
-8-8-8-8-10-8-8-5--8-8-8-8-10-8-5-8--8-8-8-8-10-8-8-5
-----------------------------------------------------
-----------------------------------------------------


Solo Cont.
-----------------------------------------------------
-----------------------------------------------------
-----------------------------------------------------
-8-8-8-8-8-8-10-8-5-8-8-8-8-8-8-10-8-5--6-6-6-10-13--
-----------------------------------------------------
-----------------------------------------------------


Solo Cont.
-----------------------------------------------------
-----------------------------------------------------
------------------12---10---8-----8------------------
-17-15-13-10-8--8----8----8-----8--------------------
-----------------------------------------------------
-----------------------------------------------------


Chorus
-----------------------------------------------------
-----------------------------------------------------
-----------------------------8888888888888888888-----
--8888888888888888888888--6--8888888888888888888-----
--8888888888888888888888--6--6666666666666666666-----
--6666666666666666666666--4-------------------------- X3

On third Time Play this:
-----------------------------------------------------
-----------------------------------------------------
-----------------------------------------------------
--8888888888888888888888--6-6-6666-------------------
--8888888888888888888888--6-6-6666-------------------
--6666666666666666666666--4-4-4444-------------------


Outro
-----------------------------------------------------
-----------------------------------------------------
--8888888888888888888888888888888888----88-----------
--8888888888888888888888888888888888----88 Let Ring--
--6666666666666666666666666666666666----66-----------
-----------------------------------------------------

That's about it, not too hard. Email me for corrections

Almost there ...

Sign in to get your own page with links to favourite songs and more. You are just one click away...

Login with Facebook Login with Google