Log in

One click and you are in

Login with Facebook Login with Google

Why sign up and log in

Guitar Tabs Explorer
Green Day bass tabs for Dominated love slave

Bass tabs

Dominated Love Slave - Green Da
Off "Kerplunk

Vers
G---------------------------------------
D---------------------------------------
A----2--2---7--7---2--2---9--9---2-0----
E--0--0---5--5---0--0---7--7---------4-2

G-----------------------------------------
D-----------------------------------------
A----2--2---7--7---2--2---9--9---7/9-7----
E--0--0---5--5---0--0---7--7-----------9-7

G------------------
D------------------
A----2--7--2------2
E--0--5--0---0--0--

Choru
G-----------------------------
D-----------------------------
A----7--7---2--2---9--9---2--2
E--5--5---0--0---7--7---0--0--
Repeat

Guitar solo- is the same as the vers
then chorus agai

Outr
G------------------------------------
D------------------------------------
A--------------------------7---------
E--7-7-7-7-7-7-7-7-7-7-7-----7-9-7-3-

Thats pretty much it
Very simple song with pretty much the same finger
movments through out the song and its fun to play!
If ya got any questions e-mail a HappyCow13@Aol.co
or deafcow@hotmail.co
         ~~Teddy

Almost there ...

Sign in to get your own page with links to favourite songs and more. You are just one click away...

Login with Facebook Login with Google