Log in

One click and you are in

Login with Facebook Login with Google

Why sign up and log in

Guitar Tabs Explorer
Green Day tabs for Bouncing off the wall

Guitar tabs

Bouncing Off The Wall - Green Day

Just Did power chords in most parts so it doesn't look too messy,
if you want specific maj or min chords then comment or something...


[Main riff] 0:00
Anacruses                                                                     x2
|-------|---------------------------------------------------------------------|
|-------|---------------------------------------------------------------------|
|-------|---~9~~-------12-12-12-12\9-9-9-9\-----9~~-------7-7-7/9/11-11-11-11-|
|-7-7-8-|-9~~9~~9~~9\7-12-12-12-12\9-9-9-9\--9~~9~~9~~9\7-7-7-7/9/11-11-11-11-|
|-7-7-8-|-9~~7~~9~~9\7-10-10-10-10\7-7-7-7\--9~~7~~9~~9\7-5-5-5/7/9--9--9--9--|
|-5-5-6-|-7~~---7~~7\5-----------------------7~~---7~~7\5---------------------|



[Verse] 0:16, 0:31
|----7------------------------------7-----------------------------------------|
|----7------------------------------7-----------------------------------------|
|-8--9--8------9-9-9-11-11-11-xx-8--9--8------9-9-9-11-11-11-xx---------------|
|-9~~9~~9------9-9-9-11-11-11-xx-9~~9~~9------9-9-9-11-11-11-xx---------------|
|-9~~7~~9--xx--7-7-7-9--9--9--xx-9~~7~~9--xx--7-7-7-9--9--9--xx---------------|
|-7~~7~~7--xx--------------------7~~7~~7--xx----------------------------------|
|                                                                              \
| 0:23, 0:38                                                                   / x2
|-----------------------------------------------------------------------------|
|------------------------------------------------------Main riff anacruses----|
|-8--9--8----------------------8~~8-8-9~~9-99-8~~8-8-8-Heavy------------------|
|-9~~9~~9--9\7-7-7-2-2-4-4-4-4-9~~9-9-9~~9-99-9~~9-9-9-7-7-8------------------|
|-9~~7~~9--9\7-7-7-2-2-4-4-4-4-9~~9-9-7~~9-99-9~~9-9-9-7-7-8------------------|
|-7~~7~~7--7\5-5-5-0-0-2-2-2-2-7~~7-7-7~~7-77-7~~7-7-7-5-5-6------------------|



[Main riff] 0:46                                                               x1
|-----------------------------------------------------------------------------|
|-----------------------------------------------------------------------------|
|---~9~~-------12-12-12-12\9-9-9-9\-----9~~-------7-7-7/9/11-11-11-11---------|
|-9~~9~~9~~9\7-12-12-12-12\9-9-9-9\--9~~9~~9~~9\7-7-7-7/9/11-11-11-11---------|
|-9~~7~~9~~9\7-10-10-10-10\7-7-7-7\--9~~7~~9~~9\7-5-5-5/7/9--9--9--9----------|
|-7~~---7~~7\5-----------------------7~~---7~~7\5-----------------------------|



[Verse] 0:53
|----7------------------------------7-----------------------------------------|
|----7------------------------------7-----------------------------------------|
|-8--9--8------9-9-9-11-11-11-xx-8--9--8------9-9-9-11-11-11-xx---------------|
|-9~~9~~9------9-9-9-11-11-11-xx-9~~9~~9------9-9-9-11-11-11-xx---------------|
|-9~~7~~9--xx--7-7-7-9--9--9--xx-9~~7~~9--xx--7-7-7-9--9--9--xx---------------|
|-7~~7~~7--xx--------------------7~~7~~7--xx----------------------------------|
|                                                                              \
|                                                                              / x1
|-----------------------------------------------------------------------------|
|-----------------------------------------------------------------------------|
|-8--9--8----------------------8~~8-8-9~~9-99-8~~8-8-8-8~~-"'cause it's all"--|
|-9~~9~~9--9\7-7-7-2-2-4-4-4-4-9~~9-9-9~~9-99-9~~9-9-9-9~~--------------------|
|-9~~7~~9--9\7-7-7-2-2-4-4-4-4-9~~9-9-7~~9-99-9~~9-9-9-9~~--------------------|
|-7~~7~~7--7\5-5-5-0-0-2-2-2-2-7~~7-7-7~~7-77-7~~7-7-7-7~~--------------------|



[Chorus] 1:08
|-----------------------------------------------------------------------------|
|-----------------------------------------------------------------------------|
|-9---------------------------------------------------------------------------|
|-9-(x16)--9--------6------9------7------4-4-4-4-4-7-7-8----------------------|
|-7--------9-(x16)--6-(x8)-9-(x8)-7-(x8)-4-4-4-4-4-7-7-8----------------------|
|----------7--------4------7------5------2-2-2-2-2-5-5-6----------------------|



[Solo/Unison Bends] 1:23 (Main Riff played in background 1.5 times)
 Gtr1
|-----------------------------------------------------------------------------|
|-12----------8---------5----------12----------10--------7--------------------|
|-14b-(x8)----10b-(x4)--7b-(x4)----14b-(x8)----12b-(x4)--9b-(x4)--------------|
|-----------------------------------------------------------------------------|
|-----------------------------------------------------------------------------|
|-----------------------------------------------------------------------------|
| 1:30
|-----------------------------------------------------------------------------|
|-12--12--12--12--12--12--12--12--15--15--15--17--19--19--19--19-\\-----------|
|-14b-14b-14b-14b-14b-14b-14b-14b-17b-17b-17b-19b-21b-21b-21b-21b\\-----------|
|-----------------------------------------------------------------------------|
|-----------------------------------------------------------------------------|
|-----------------------------------------------------------------------------|

1:34 Continued...
 Gtr1
|-----------------------------------------------------------------------------|
|-0~~0~~0-2-2-3-3-2~~0-0-0-0-/2-2-2-2-2-2/4-4/7-7-7-7-7-----------------------|
|-----------------------------------------------------------------------------|
|-----------------------------------------------------------------------------|
|-----------------------------------------------------------------------------|
|------------------------------------------------------------REST-------------|
|Gtr2
|-----------------------------------------------------------------------------|
|-------------------------------------------------2-2-2-2-2-------------------|
|-1-1-1-1-1-1-1-1-1-1-1-1-1-1-1-1---------3-3-3-3-3-3-3-3-3-------------------|
|-2-2-2-2-2-2-2-2-2-2-2-2-2-2-2-2-4-4-4-4-4-4-4-4-4-4-4-4-4-------------------|
|-2-2-2-2-2-2-2-2-2-2-2-2-2-2-2-2-4-4-4-4-4-4-4-4-4-4-4-4-4-------------------|
|-0-0-0-0-0-0-0-0-0-0-0-0-0-0-0-0-2-2-2-2-2-2-2-2-2-2-2-2-2--REST-------------|



[Chorus] 1:41
|-----------------------------------------------------------------------------|
|-----------------------------------------------------------------------------|
|-9---------------------------------------------------------------------------|
|-9-(x16)--9--------6------9------7------4-4-4-4-4-7-7-8----------------------|
|-7--------9-(x16)--6-(x8)-9-(x8)-7-(x8)-4-4-4-4-4-7-7-8----------------------|
|----------7--------4------7------5------2-2-2-2-2-5-5-6----------------------|


[Similar Main riff] 1:56                                                      x1
|-----------------------------------------------------------------------------|
|-----------------------------------------------------------------------------|
|---~9~~----------12-12-12\9-9-9-9\-----9~~-------7-7-7/9/11------------------|
|-9~~9~~9~~-xxx---12-12-12\9-9-9-9\--9~~9~~9~~9\7-7-7-7/9/11------------------|
|-9~~7~~9~~-xxx---10-10-10\7-7-7-7\--9~~7~~9~~9\7-5-5-5/7/9-------------------|
|-7~~---7~~-xxx----------------------7~~---7~~7\5-----------------------------|



[Outro/Solo]

[Solo/Unison Bends] 2:04 (Main Riff played in background 2 times)
 Gtr1
|-----------------------------------------------------------------------------|
|-12----------8---------5----------12----------10--------7--------------------|
|-14b-(x8)----10b-(x4)--7b-(x4)----14b-(x8)----12b-(x4)--9b-(x4)--------------|
|-----------------------------------------------------------------------------|
|-----------------------------------------------------------------------------|
|-----------------------------------------------------------------------------|
|
|-----------------------------------------------------------------------------|
|-12----------8---------5----------12----------15--15--15--17--19--19--19--19-|
|-14b-(x8)----10b-(x4)--7b-(x4)----14b-(x8)----17b-17b-17b-19b-21b-21b-21b-21b|
|-----------------------------------------------------------------------------|
|-----------------------------------------------------------------------------|
|-----------------------------------------------------------------------------|

Then.. 2:19
|-----------------------------------------------------------------------------|
|-----------------------------------------------------------------------------|
|-8~~9~~8~~9~~8\\-------------------------------------------------------------|
|-9~~9~~9~~9~~9\\-------------7-7-8-9~~~~~~-----------------------------------|
|-9~~7~~9~~7~~9\\--DRUM FILL--7-7-8-9~~~~~~~----------------------------------|
|-7~~7~~7~~7~~7\\-------------5-5-6-7~~~~~~~~Feedback and sounds...-----------|

Other versions of Bouncing Off The Wall

Bouncing off the wallChords
Bouncing off the wall (Ver. 2)Tabs

Almost there ...

Sign in to get your own page with links to favourite songs and more. You are just one click away...

Login with Facebook Login with Google