Log in

One click and you are in

Login with Facebook Login with Google

Why sign up and log in

Guitar Tabs Explorer
Green Day tabs for Basket case (Ver. 2)

Tabs

note- when playing a green day song, to get correct sound tune down 1/2 step
/ or =slide for better sound


[verse]
   A chord diagramE5E5          A chord diagramB5B5          A chord diagramC#5C#5         A chord diagramG#5G#5         A chord diagramA5A5          A chord diagramE5E5
1-|-----------|-----------|-----------|-----------|-----------|-----------|
2-|5-5-5-5-5-5|-----------|-----------|-----------|-----------|-----------|
3-|4-4-4-4-4-4|4-4-4-4-4-4|6-6-6-6-6-6|-----------|-----------|9-9-9-9-9-9|
4-|2-2-2-2-2-2|4-4-4-4-4-4|6-6-6-6-6-6|6-6-6-6-6-6|7-7-7-7-7-7|9-9-9-9-9-9|
5-|-----------|2-2-2-2-2-2|4-4-4-4-4-4|6-6-6-6-6-6|7-7-7-7-7-7|7-7-7-7-7-7|
6-|-----------|-----------|-----------|4-4-4-4-4-4|5-5-5-5-5-5|-----------|
   Do you...

[verse continued]
   A chord diagramB5B5          A chord diagramB5B5
1-|-----------|-----------| ||
2-|-----------|-----------| ||
3-|-----------|-----------|.||
4-|9-9-9-9-9-9|9-9-9-9-9-9|.||
ⓘ This is the 2nd version of guitar tab for 'Basket Case' by Green Day, a punk rock band formed in 1987 from East Bay, California, USA. Green Day is known for their excitable rock/pop music.

Other versions of Basket Case

Other alternative guitar chords and tabs for the song Basket case live by Green Day
Basket caseTabs
Basket case acousticTabs
Basket case liveTabs

Almost there ...

Sign in to get your own page with links to favourite songs and more. You are just one click away...

Login with Facebook Login with Google