Log in

One click and you are in

Login with Facebook Login with Google

Why sign up and log in

Guitar Tabs Explorer
Green Day bass tabs for Back in the usa

Bass tabs

Intro:
                                             Quickly
G|------------------------------------------------------------------------------------------------------|
D|------------------------------------------------------------6--6--6-6-6--6-66-6-6--86-4443334443334--6|
A|4--4--4-4-4-4-4-4-4-4-4-4-4-4-------------------------------------------------------------------------|
E|------------------------------6--6--6-6-6-6-6-6-6-6-6-6-6-6-------------------------------------------|
Verse:
G|------------------------------------------------------------------------------------------|
D|------------------------------------------------------------------------------------------|
A|4-4-4-4-4-4-4-4-4-4-4-4-4-4-4-----------------------------------------------4-4-4-4-4-4-4-|
E|------------------------------6-6-6-6-6-6-6-6-6-6-6-6-6-6-6-6-2-2-2-2-2-2-2---------------|

G|-----------------------------------------------------------------------------------------------|
D|-----------------------------------------------------------------------------------------------|
A|--------------------------------4-4-4-4-4-4-4-4-4-4-4-4-4-4-4-4--------------------------------|
E|4-4-4-4-4-4-4-4-4-4-4-4-4-4-4-4---------------------------------6-6-6-6-6-6-6-6-6-6-6-6-6-6-6-6|

G|---------------------------------------------------------------------|
D|----------------------------6-6-6-6-6-6-6-6-6-6-6-6------------------|
A|--------------4-4-4-4-4-4-4------------------------------------------|
E|2-2-2-2-2-2-2--------------------------------------------------------|


Pre-Chorus:
G|------------------------------------------------------------------------------------------------|
D|------------------------------------------------------------------------------------------------|
A|--------------------------------1-1-1-1-1-1-1-1-1-1-1-1-1-1-1-1---------------------------------|
E|1-1-1-1-1-1-1-1-1-1-1-1-1-1-1-1---------------------------------2-2-2-2-2-2-2-2-2-2-2-2-2-2-2-2-|

G|---------------------------|
D|---------------------------|
A|---------------------------|
E|4--4--4-4-4-4-4-4-4-4-4-111|
Chorus:
G|------------------------------------------------------------------------------------------------|
D|------------------------------------------------------------------------6-6-6-6-6-6-6-6-6-6-6-6-|
A|4--44-4-4-4-4-4-4-4-4-4-------------------------4--44-4-4-4-4-4-4-4-4-4-------------------------|
E|------------------------2--22-2-2-2-2-2-2-2-2-2-------------------------------------------------|

G|------------------------------------------------------------------------------------------------------|
D|----------------------4--44-4-4-4-4-4-4-4-4-4-------------------------6--66-6-6-6-6-6-6-6-6-----------|
A|1--11-1-1-1-1-1-1-1-1-------------------------4--44-4-4-4-4-4-4-4-4-4---------------------------------|
E|---------------------------------------------------------------------------------------------------2-4|


Bridge:
                                             Quickly
G|------------------------------------------------------------------------------------------------------|
D|------------------------------------------------------------6--6--6-6-6--6-66-6-6--86-4443334443334--6|
A|4--4--4-4-4-4-4-4-4-4-4-4-4-4-------------------------------------------------------------------------|
E|------------------------------6--6--6-6-6-6-6-6-6-6-6-6-6-6-------------------------------------------|


Verse:
G|------------------------------------------------------------------------------------------|
D|------------------------------------------------------------------------------------------|
A|4-4-4-4-4-4-4-4-4-4-4-4-4-4-4-----------------------------------------------4-4-4-4-4-4-4-|
E|------------------------------6-6-6-6-6-6-6-6-6-6-6-6-6-6-6-6-2-2-2-2-2-2-2---------------|

G|-----------------------------------------------------------------------------------------------|
D|-----------------------------------------------------------------------------------------------|
A|--------------------------------4-4-4-4-4-4-4-4-4-4-4-4-4-4-4-4--------------------------------|
E|4-4-4-4-4-4-4-4-4-4-4-4-4-4-4-4---------------------------------6-6-6-6-6-6-6-6-6-6-6-6-6-6-6-6|

G|---------------------------------------------------------------------|
D|----------------------------6-6-6-6-6-6-6-6-6-6-6-6------------------|
A|--------------4-4-4-4-4-4-4------------------------------------------|
E|2-2-2-2-2-2-2--------------------------------------------------------|


Pre-Chorus:
G|------------------------------------------------------------------------------------------------|
D|------------------------------------------------------------------------------------------------|
A|--------------------------------1-1-1-1-1-1-1-1-1-1-1-1-1-1-1-1---------------------------------|
E|1-1-1-1-1-1-1-1-1-1-1-1-1-1-1-1---------------------------------2-2-2-2-2-2-2-2-2-2-2-2-2-2-2-2-|

G|---------------------------|
D|---------------------------|
A|---------------------------|
E|4--4--4-4-4-4-4-4-4-4-4-111|


Chorus:
G|------------------------------------------------------------------------------------------------|
D|------------------------------------------------------------------------6-6-6-6-6-6-6-6-6-6-6-6-|
A|4--44-4-4-4-4-4-4-4-4-4-------------------------4--44-4-4-4-4-4-4-4-4-4-------------------------|
E|------------------------2--22-2-2-2-2-2-2-2-2-2-------------------------------------------------|

G|------------------------------------------------------------------------------------------------------|
D|----------------------4--44-4-4-4-4-4-4-4-4-4-------------------------6--66-6-6-6-6-6-6-6-6-----------|
A|1--11-1-1-1-1-1-1-1-1-------------------------4--44-4-4-4-4-4-4-4-4-4---------------------------------|
E|---------------------------------------------------------------------------------------------------2-4|


Outro:
                                             Quickly
G|---------------------------------------------------------------------------------------------------------|
D|------------------------------------------------------------6--6--6-6-6--6-66-6-6--86-4443334443334--6---|
A|4--4--4-4-4-4-4-4-4-4-4-4-4-4----------------------------------------------------------------------------|
E|------------------------------6--6--6-6-6-6-6-6-6-6-6-6-6-6--------------------------------------------4~|


***********************************

| ~  Vibrato
ⓘ Bass guitar tab for 'Back In The Usa' by Green Day, a punk rock band formed in 1987 from East Bay, California, USA. Green Day is known for their excitable rock/pop music.

Almost there ...

Sign in to get your own page with links to favourite songs and more. You are just one click away...

Login with Facebook Login with Google