Log in

One click and you are in

Login with Facebook Login with Google

Why sign up and log in

Guitar Tabs Explorer
Green Day bass tabs for Ashley

Bass tabs

Intro:

G|--------------------------------|----------------------------------|
D|--------------------------------|-5-5-5------------5-5-5-5-5-5-5-5-|
A|-7--7--7-7-7-0---------7--7-7-0-|--------0-5-5-5-0-----------------|
E|----------------5-5-0-----------|----------------------------------| (x2)

Verse:

G|----------------------------------|----------------------------------|
D|----------------------------------|----------------------------------|
A|----------------------------------|-5-5-5-5-5-5-5-5--0-0-0-0-0-0-0-0-|
E|-0-0-0-0-0-0-0-0--3-3-3-3-3-3-3-3-|----------------------------------|

G|----------------------------------|----------------------------------|
D|----------------------------------|----------------------------------|
A|----------------------------------|-5-5-5-5-5-5-5-5--2-2-2-2-2-2-2-2-|
E|-0-0-0-0-0-0-0-0--3-3-3-3-3-3-3-3-|----------------------------------|

G|---------------------------------------------|----------------------------------------------------|
D|---------------------------------------------|-12-12-12-12-12-12-12/(19)--19-19-19-19-19-19-19-19-|
A|-7-7-7-7-7-7-7/(10)--10-10-10-10-10-10-10-10-|----------------------------------------------------|
E|---------------------------------------------|----------------------------------------------------|

G|----------------------------------|------------------------------------|-----------------|
D|----------------------------------|------------------------------------|-----------------|
A|----------------------------------|-5-5-5-5-5-5-5-5--5h7-7-7-7-7-7-7-7-|-7-7-7-7-7-7-7-7-|
E|-0-0-0-0-0-0-0-0--3-3-3-3-3-3-3-3-|------------------------------------|-----------------|


Pre-Chorus:

G|------------------------------------|----------------------------------|
D|------------------------------------|----------------------------------|
A|-3-3-3-3-3-3-3-3--------------------|-5-5-5-5-5-5-4-5--7-7-7-7-7-7-7-7-|
E|------------------3-3-3-3-3-3-3-3h5-|----------------------------------|

G|------------------------------------|----------------------------------|
D|------------------------------------|----------------------------------|
A|-3-3-3-3-3-3-3-3--------------------|-5-5-5-5-5-5-4-5--7-7-6-7-7-7-5-0-|
E|------------------3-3-3-3-3-3-3-3h5-|----------------------------------|

G|------------------------------------|----------------------------------|
D|------------------------------------|----------------------------------|
A|-3-3-3-3-3-3-3-3--------------------|-5-5-5-5-5-5-4-5--7-7-7-7-7-7-7-7-|
E|------------------3-3-3-3-3-3-3-3h5-|----------------------------------|

G|------------------------------------|------------------------------------|
D|------------------------------------|------------------------------------|
A|-3-3-3-3-3-3-3-3--------------------|-2-2-2-2-2-2-2-2--2-2-2-2-2-2-2/(7)-|
E|------------------3-3-3-3-3-3-3-3-0-|------------------------------------|

Chorus:

G|--------------------------------|----------------------------------|
D|--------------------------------|-5-5-5------------5-5-5-5-5-5-5-5-|
A|-7--7--7-7-7-0---------7--7-7-0-|--------0-5-5-5-0-----------------|
E|----------------5-5-0-----------|----------------------------------| (x4)


Guitar Solo:

G|-------------------------------|-----7-----------------------------|
D|-------------------------------|-5-5----------7-0--5-5-5-5-5-5-5-5-|
A|-7--7--7-7-7--------5-7--7-7-0-|--------0-5-5----------------------|
E|--------------0-5-7------------|-----------------------------------| (x4)


Bridge:

G|------------------------------------|------------------------------------------|
D|------------------------------------|------------------------------------------|
A|------------------------------------|-10-10-10-10-10-10-10-10--7-7-7-7-7-7-7-7-|
E|-3-3-3-3-3-3-3-3h5--0-0-0-0-0-0-0-0-|------------------------------------------|

G|----------------------------------|-----------------------------------------------|
D|----------------------------------|-----------------------------------------------|
A|-3-3-3-3-3-3-3-3------------------|-2-2-2-2-2-2-2/(14)--14-14-14-14-14-16-(0)-(0)-|
E|------------------3-3-3-3-3-3-3-3-|-----------------------------------------------|


Verse:

G|------------------------------------------|------------------------------------------|
D|------------------------------------------|-12-12-12-12-12-12-12-12--7-7-7-7-7-7-7-7-|
A|-7-7-7-7-7-7-7-7--10-10-10-10-10-10-10-10-|------------------------------------------|
E|------------------------------------------|------------------------------------------|

G|------------------------------------------|------------------------------------------|
D|------------------------------------------|-12-12-12-12-12-12-12-12--9-9-9-9-9-------|
A|-7-7-7-7-7-7-7-7--10-10-10-10-10-10-10-10-|------------------------------------------|
E|------------------------------------------|------------------------------------------|

G|----------------------------------|----------------------------------|
D|----------------------------------|------------------7-7-7-7-7-7-7-7-|
A|----------------------------------|-5-5-5-5-5-5-5-5------------------|
E|-0-0-0-0-0-0-0-0--3-3-3-3-3-3-3-3-|----------------------------------|

G|----------------------------------|-7-7-7-7-7-7-7-7--7h9-9-9-9-9-9-9-9-|-(7h)9-7-------------|
D|------------------5-5-5-5-5-5-5-5-|------------------------------------|---------9-7-5-------|
A|-7-7-7-7-7-7-7-7------------------|------------------------------------|---------------7-5-0-|
E|----------------------------------|------------------------------------|---------------------|


Pre-Chorus:

G|------------------------------------|----------------------------------|
D|------------------------------------|----------------------------------|
A|-3-3-3-3-3-3-3-3--------------------|-5-5-5-5-5-5-4-5--7-7-7-7-7-7-7-7-|
E|------------------3-3-3-3-3-3-3-3h5-|----------------------------------|

G|------------------------------------|----------------------------------|
D|------------------------------------|----------------------------------|
A|-3-3-3-3-3-3-3-3--------------------|-5-5-5-5-5-5-4-5--7-7-6-7-7-7-5-0-|
E|------------------3-3-3-3-3-3-3-3h5-|----------------------------------|

G|------------------------------------|----------------------------------|
D|------------------------------------|----------------------------------|
A|-3-3-3-3-3-3-3-3--------------------|-5-5-5-5-5-5-4-5--7-7-7-7-7-7-7-7-|
E|------------------3-3-3-3-3-3-3-3h5-|----------------------------------|

G|------------------------------------|----------------------------------|
D|------------------------------------|----------------------------------|
A|-3-3-3-3-3-3-3-3--------------------|-2-2-2-2-2-2-2-2--2-2-2-2-2-------|
E|------------------3-3-3-3-3-3-3-3-0-|----------------------------------|


Chorus:

G|--------------------------------|----------------------------------|
D|--------------------------------|-5-5-5------------5-5-5-5-5-5-5-5-|
A|-7--7--7-7-7-0---------7--7-7-0-|--------0-5-5-5-0-----------------|
E|----------------5-5-0-----------|----------------------------------| (x4)


Outro:

G|--------------------------------|--------------------------------|
D|--------------------------------|--------------------------------|
A|--------------------------------|------------------7-7-----------|
E|-0-0--------------0-0-----------|-0-0--------------0-0-----------|
ⓘ Bass guitar tab for 'Ashley' by Green Day, a punk rock band formed in 1987 from East Bay, California, USA. Green Day is known for their excitable rock/pop music.

Almost there ...

Sign in to get your own page with links to favourite songs and more. You are just one click away...

Login with Facebook Login with Google