Guitar Tabs Explorer
Green Day bass tabs for Are we the waiting

Bass tabs

  • Tuning: Standard tuning
  • Difficulty: Beginner
Track 5 from American Idiot - Are We Waiting?


Tuning - Standard
     Verse
G |-------------------|
D |-------------------| X2
A |------------5~~~~--|
E |---5~~~~-----------|


    Chorus
G |-------------------|
D |-------------------|
A |------------5~~~~--|
E |---5~~~~-----------|


    Verse II
G |-------------------|
D |-------------------| X2
A |------------5~~~~--|
E |--2----0-----------|


    Chorus II
G |-------------------|
D |-------------------| X2
A |------------5~~~~--|
E |---5~~~~-----------|


    verse III
G |------------------|
D |------------------| X2
A |-----------5~~~~--|
E |--5~~~~-----------|
    Chorus III
G |-------------------|
D |-------------------|
A |------------5~~~~--|
E |---5~~~~-----------|


     Verse III
G |-------------------|
D |-------------------| X2
A |------------5~~~~--|
E |--2----0-----------|

G |---------------------|
D |---------------------|
A |--12\0~~~~----5~~~~--|
E |---------------------|


    Final Chorus
G |-------------------|
D |-------------------| X4
A |------------5~~~~--|
E |---5~~~~-----------|
ⓘ Bass guitar tab for 'Are We The Waiting' by Green Day, a punk rock band formed in 1987 from East Bay, California, USA. Green Day is known for their excitable rock/pop music.