Guitar Tabs Explorer
Green Day bass tabs for Angel blue

Bass tabs

  • Tuning: Standard tuning
  • Difficulty: Beginner
Track 9 from ?Uno! - Angel Blue


Tuning - Standard

       Intro
G |-------------------------------|
D |-------2--2--2-----------------| X3
A |--2--------------2----2--2--0--|
E |-------------------------------|

G |--------------------------|
D |--------------------------| X2
A |--------------------------|
E |--2--2--2--2--2--2--2--2--|

G |------------------------|--------------------------|
D |------------------------|--2--2--2-----------------| X3
A |--2----2----2--2--2--2--|------------2----2--2--0--|
E |------------------------|--------------------------|

G |--------------------------|
D |--------------------------| X2
A |--------------------------|
E |--2--2--2--2--2--2--2--2--|

              Verse
G |-------------------------------|-------------------------------|
D |-------2--2--2-----------------|-------4--4--4-----------------|
A |--2--------------2----2--2--0--|--2--------------2----2--2--0--|
E |-------------------------------|-------------------------------|

G |-------------------------------|-------------------------------|
D |-------2--2--2-----------------|-------4--4--4--------------2--|
A |--2--------------2----2--2--0--|--2--------------2----2--2-----|
E |-------------------------------|-------------------------------|

                Pre Chorus
G |-----------------------|-----------------------|-----------------------------|
D |--2--2--2--2--1--------|-----------------------|--------------------------2--|
A |-----------------0--2--|--2--2--2--2--1--------|-----------------------2-----|
E |-----------------------|-----------------0--2--|--2--2--2--2--2--2--2--------|

G |-----------------------|-----------------------|-----------------------|
D |--2--2--2--2--1--------|-----------------------|-----------------------|
A |-----------------0--2--|--2--2--2--2--1--------|-----------------------|
E |-----------------------|-----------------0--2--|--2--2--2--2--2--2--2--|

G |--------------------------|
D |--------------------------|
A |--------------------------|
E |--2--2--2--2--2--2--7--7--|

         Chorus
G |-----------------|-----------------------|
D |-----------------|-----------------------| X4
A |--7--------------|-----------------------|
E |--------7-----2--|--2--2--2--2--2--2--2--|

            Post Chorus
G |------------------------|------------------------------|
D |------------------------|-------2--2--2----------------| X3
A |--2----2----2--2--2--2--|----------------2----2--2--0--|
E |------------------------|------------------------------|

G |--------------------------|--------------------------|
D |--------------------------|--------------------------|
A |--------------------------|--------------------------|
E |--2--2--2--2--2--2--2--2--|--2--2--2--2--2--2--2--2--|

          Verse II
G |-------------------|------------------------|
D |-------------------|------------------------|
A |--2----2--2--2--2--|--2----2----2--2--2--2--|
E |-------------------|------------------------|

G |-------------------------------|-------------------------------|
D |-------4--4--4-----------------|------2--2--2------------------|
A |--2--------------2----2--2--0--|--2--------------2----2--2--0--|
E |-------------------------------|-------------------------------|

G |-------------------------------|
D |-------4--4--4--------------2--|
A |--2--------------2----2--2-----|
E |-------------------------------|

                     Pre Chorus
G |-----------------------|-----------------------|-----------------------|-----------------------------|
D |--2--2--2--2--1--------|-----------------------|-----------------------|--------------------------2--|
A |-----------------0--2--|--2--2--2--2--1--------|-----------------------|-----------------------2-----|
E |-----------------------|-----------------0--2--|--2--2--2--2--2--2--2--|--2--2--2--2--2--2--2--------|

G |-----------------------|-----------------------|-----------------------|--------------------------|
D |--2--2--2--2--1--------|-----------------------|-----------------------|--------------------------|
A |-----------------0--2--|--2--2--2--2--1--------|-----------------------|--------------------------|
E |-----------------------|-----------------0--2--|--2--2--2--2--2--2--2--|--2--2--2--2--2--2--7--7--|

        Chorus II
G |-----------------|-----------------------|
D |-----------------|-----------------------| X4
A |--7--------------|-----------------------|
E |--------7-----2--|--2--2--2--2--2--2--2--|

        Solo - X2
G |---------------|-----------------------|
D |---------------|-----------------------|
A |--2------------|-----------------------|
E |-------2----0--|--0--0--0--0--0--0--0--|

G |---------------|-----------------------|
D |---------------|-----------------------|
A |--2---------2--|--2--2--2--2--2--2--2--|
E |-------0-------|-----------------------|

G |------------------------|----------------------|---------------------|-----2------------|
D |------------------------|----------------------|-----2---------------|------------------|
A |------------------------|-------------------2--|--2-------2----2--2--|--2-------2----2--|
E |--5----5----5--5--5--0--|--0--0----0--0--0-----|---------------------|------------------|

G |------------------------|----------------------|-----------------------|-------------------------------|
D |------------------------|----------------------|-----------------------|-------------------------------|
A |------------------------|----------------------|-----------------------|----------------------------2--|
E |--5----5----5--5--5--0--|--0--0----0--0--0--2--|--2--2--2--2--2--2--2--|--2--2--2--2--2--2--2--2-------|

Rest for a moment

                     Pre Chorus
G |---------------------------|-----------------------|-----------------------|-----------------------------|
D |-2----2--2--2--2--1--------|-----------------------|-----------------------|--------------------------2--|
A |---------------------0--2--|--2--2--2--2--1--------|-----------------------|-----------------------2-----|
E |---------------------------|-----------------0--2--|--2--2--2--2--2--2--2--|--2--2--2--2--2--2--2--------|

G |-----------------------|-----------------------|-----------------------|--------------------------|
D |--2--2--2--2--1--------|-----------------------|-----------------------|--------------------------|
A |-----------------0--2--|--2--2--2--2--1--------|-----------------------|--------------------------|
E |-----------------------|-----------------0--2--|--2--2--2--2--2--2--2--|--2--2--2--2--2--2--7--7--|

        Final Chorus
G |-----------------|-----------------------|
D |-----------------|-----------------------| X4
A |--7--------------|-----------------------|
E |--------7-----2--|--2--2--2--2--2--2--2--|

           Outro
G |------------------------|-------------------------|
D |------------------------|--2--2--2----------------| X3
A |--2----2----2--2--2--2--|-----------2----2--2--0--|
E |------------------------|-------------------------|

G |------------------------|---------------|
D |------------------------|--2--2--2------|
A |--2----2----2--2--2--2--|-----------2\--|
E |------------------------|---------------|
ⓘ Bass guitar tab for 'Angel Blue' by Green Day, a punk rock band formed in 1987 from East Bay, California, USA. Green Day is known for their excitable rock/pop music.