Guitar Tabs Explorer
Green Day bass tabs for American idiot

American Idiot bass tab by Green Day

Green Day bass tabs for American idiot

Bass tabs

Green Day - American Idiot
By Damien Biggins


Intro/Verses
e|-----------------------------------------------------|
B|-----------------------------------------------------|
G|--------6666------6----------------------------------|
D|---666--6666--44--6--6--4----------------------------|
A|---666--4444--44--4--6--4----------------------------|
E|---444--------22-----4--2----------------------------|
Chorus
e|-----------------------------------------------|
B|-----------------------------------------------|
G|-----66666666------------88888888--------------|
D|-----66666666--66666666--88888888--66666666----|
A|-----44444444--66666666--66666666--66666666----|
E|---------------44444444------------44444444----|

e|-----------------------------------------------|
B|-----------------------------------------------|
G|-----66666666------------88888888--------------|
D|-----66666666--66666666--88888888--------------|
A|-----44444444--66666666--66666666--------------|
E|---------------44444444------------------------|


Solo
e|---------------------------------------------------------------------------|
B|---------------------------------------------------------------------------|
G|-10-10-10-10-10-10-10-8-6-8-8-8-8-8-8--10-8-6-5-----------5-6-5----8-------|
D|---------------------------------------------------8-8-8-8--------8--------|
A|---------------------------------------------------------------------------|
E|---------------------------------------------------------------------------|

e|---------------------------------------------------------------------------|
B|----10----11-13-13-11-9----------------------------------------------------|
G|-10----10------------------------------------------------------------------|
D|---------------------------------------------------------------------------|
A|---------------------------------------------------------------------------|
E|---------------------------------------------------------------------------|

e|---------------------------------------------------------------------------|
B|----------------------------------------------------------------------9----|
G|-10-10-10-10-10-10-10-8-6-8-8-8-8-8-8--10-8-6-5-----------5-6-5----8-------|
D|---------------------------------------------------8-8-8-8--------8--------|
A|---------------------------------------------------------------------------|
E|---------------------------------------------------------------------------|
ⓘ Bass guitar tab for 'American Idiot' by Green Day, a punk rock band formed in 1987 from East Bay, California, USA. Green Day is known for their excitable rock/pop music.