Log in

One click and you are in

Login with Facebook Login with Google

Why sign up and log in

Guitar Tabs Explorer
Green Day bass tabs for 21 guns (Ver. 2)

Bass tabs

  • Tuning: Standard tuning
  • Difficulty: Beginner
Track 16 from 21st Century Breakdown - 21 Guns


Tuning - Standard
                     Verse
G |-------------|-------------|-------------|-------------|-------------|-------------|
D |--0----------|--3----------|--0----------|--3----------|--0----------|--3----------|
A |-------1--1--|-------3--3--|-------1--1--|-------------|-------1--1--|-------3--3--|
E |-------------|-------------|-------------|-------8--8--|-------------|-------------|

G |------------|
D |------------|
A |--1------3--|
E |------------|


                       Chorus
G |----------------|----------------------|--------------------------|--------------------------|
D |----------------|--0--0----------------|--------------------------|--------------------------| X2
A |----------------|----------3--3--3--3--|--1--1--1--1--------------|--3--3--3--3--3--3--3--3--|
E |--1--1----0--0--|----------------------|--------------1--1--1--1--|--------------------------|

G |--------------------------|-----|
D |--------------------------|-----|
A |--1--1--1--1--------------|-----|
E |--------------1--1--1--1--|--3--|


               Verse II
G |-------------|-------------|-------------|-------------|-------------|-------------|
D |--0----------|--3----------|--0----------|--3----------|--0----------|--3----------|
A |-------1--1--|-------3--3--|-------1--1--|-------3--3--|-------1--1--|-------3--3--|
E |-------------|-------------|-------------|-------------|-------------|-------------|

G |--------------------|--------------------|
D |--------------------|--------------------|
A |--1----1----1----1--|--3----3----3----3--|
E |--------------------|--------------------|

G |-------------|-------------|-------------|-------------|-------------|-------------|
D |--0----------|--3----------|--0----------|--3----------|--0----------|--3----------|
A |-------1--1--|-------3--3--|-------1--1--|-------3--3--|-------1--1--|-------3--3--|
E |-------------|-------------|-------------|-------------|-------------|-------------|

G |------------|
D |------------|
A |--1------3--|
E |------------|
                   Chorus II
G |----------------|----------------------|--------------------------|--------------------------|
D |----------------|--0--0----------------|--------------------------|--------------------------| X2
A |----------------|----------3--3--3--3--|--1--1--1--1--------------|--3--3--3--3--3--3--3--3--|
E |--1--1----0--0--|----------------------|--------------1--1--1--1--|--------------------------|

G |--------------------------|--------------------------|
D |--------------------------|--------------------------|
A |--1--1--1--1--------------|--3--3--3--3--3--3--3--3--|
E |--------------1--1--1--1--|--------------------------|


                  Bridge
G |----------------|----------------------|----------------|--------------------------|
D |--0--0----------|----------------------|--0--0----------|--------------------------|
A |----------1--1--|----------3--3--3--3--|----------1--1--|--------------0--0--0--0--|
E |----------------|--1--1----------------|----------------|--1--1--1--1--------------|

G |----------------|--------------------------|--------------------------|--------------------------|
D |--0--0----------|--------------------------|--------------------------|--------------------------|
A |----------1--1--|--------------0--0--0--0--|--1--1--1--1--1--1--1--1--|--3--3--3--3--3--3--3--3--|
E |----------------|--1--1--1--1--------------|--------------------------|--------------------------|


                      Solo
G |--------------------------|--------------------------|--------------------------|--------------------------|
D |--------------------------|--0--0--0--0--------------|--------------------------|--------------------------| X2
A |--------------------------|--------------3--3--3--3--|--1--1--1--1--------------|--3--3--3--3--3--3--3--3--|
E |--1--1--1--1--0--0--0--0--|--------------------------|--------------1--1--1--1--|--------------------------|

G |--------------------------|--------------------------|
D |--------------------------|--------------------------|
A |--1--1--1--1--------------|--0--0--0--0--0--0--0--0--|
E |--------------1--1--1--1--|--------------------------|


Rest for a moment

                    Final Chorus
G |----------------|----------------------|--------------------------|--------------------------|
D |----------------|--0--0----------------|--------------------------|--------------------------| X4
A |----------------|----------3--3--3--3--|--1--1--1--1--------------|--3--3--3--3--3--3--3--3--|
E |--1--1----0--0--|----------------------|--------------1--1--1--1--|--------------------------|

G |--------------------------|---------|
D |--------------------------|---------|
A |--1--1--1--1--------------|--3~~~~--|
E |--------------1--1--1--1--|---------|
ⓘ This is the 2nd version of bass guitar tab for '21 Guns' by Green Day, a punk rock band formed in 1987 from East Bay, California, USA. Green Day is known for their excitable rock/pop music.

Other versions of 21 Guns

Other alternative guitar chords and tabs for the song 21 guns by Green Day
21 gunsBass tabs

Almost there ...

Sign in to get your own page with links to favourite songs and more. You are just one click away...

Login with Facebook Login with Google