Log in

One click and you are in

Login with Facebook Login with Google

Why sign up and log in

Guitar Tabs Explorer
Great White tabs for On the edge

Guitar tabs with lyrics

-----------------------------------------------------------------------------
		      On the Edge - Great White (GUITAR)

-----------------------------------------------------------------------------
Tabbed by: Scotto10
Tuning: Standard


Guitar - rhythm


        PM PM PM PM    PM       PM PM PM PM PM    PM
     A chord diagramE MajorE
A chord diagramE MajorE||--------------------------|--------------------------|
A chord diagramBB||--------------------------|--------------------------|
A chord diagramG+G||--9--------------7-----5--|-----------------5-----6--|
A chord diagramD MajorD||--9--------------7-----5--|-----------------5-----5--|
A chord diagramA augmentedA||--------------------------|--------------------------|
A chord diagramE MajorE||-----0--0--0--0-----0-----|--0--0--0--0--0-----0-----|


  PM PM PM PM PM    PM       PM PM PM PM    PM
  A chord diagramE MajorE
--------------------------|--------------------------|
--------------------------|--------------------------|
-----------------6-----7--|--------------5-----------|
-----------------5-----7--|--------------5-----------|
--------------------------|--------------------------|
--0--0--0--0--0-----0-----|--0--0--0--0-----0--3--2--|


     PM PM PM PM    PM       PM PM PM PM PM    PM
  A chord diagramE MajorE
--------------------------|--------------------------|
--------------------------|--------------------------|
--9--------------7-----5--|-----------------5-----6--|
--9--------------7-----5--|-----------------5-----5--|
--------------------------|--------------------------|
-----0--0--0--0-----0-----|--0--0--0--0--0-----0-----|

  PM PM PM PM PM    PM       PM PM PM PM    PM
  A chord diagramE MajorE
--------------------------|--------------------------|
--------------------------|--------------------------|
-----------------6-----7--|--------------5-----------|
-----------------5-----7--|--------------5-----------|
--------------------------|--------------------------|
--0--0--0--0--0-----0-----|--0--0--0--0-----0--3--2--|


     PM PM PM PM    PM       PM PM PM PM PM    PM
  A chord diagramE MajorE
--------------------------|--------------------------|
--------------------------|--------------------------|
--9--------------7-----5--|-----------------5-----6--|
--9--------------7-----5--|-----------------5-----5--|
--------------------------|--------------------------|
-----0--0--0--0-----0-----|--0--0--0--0--0-----0-----|


  PM PM PM PM PM    PM       PM PM PM PM    PM
  A chord diagramE MajorE
--------------------------|--------------------------|
--------------------------|--------------------------|
-----------------6-----7--|--------------5-----------|
-----------------5-----7--|--------------5-----------|
--------------------------|--------------------------|
--0--0--0--0--0-----0-----|--0--0--0--0-----0--3--2--|


     PM PM PM PM    PM       PM PM PM PM PM    PM
  A chord diagramE MajorE
--------------------------|--------------------------|
--------------------------|--------------------------|
--9--------------7-----5--|-----------------5-----6--|
--9--------------7-----5--|-----------------5-----5--|
--------------------------|--------------------------|
-----0--0--0--0-----0-----|--0--0--0--0--0-----0-----|


  PM PM PM PM PM    PM       PM PM PM PM
  A chord diagramE MajorE  Q    Q       W
--------------------------|------------------------|-------------------|
--------------------------|------------------------|-------------------|
-----------------6-----7--|--------------5----7----|--9----------------|
-----------------5-----7--|--------------5----7----|--9----------------|
--------------------------|------------------------|--7----------------|
--0--0--0--0--0-----0-----|--0--0--0--0------------|--0----------------|


  W                   W                   H.           A chord diagramE MajorE  S S
-------------------|-------------------|----------------------|
-------------------|-------------------|------------------x-x-|
-------------------|--9----------------|--L------------L--x-x-|
-------------------|--9----------------|--L------------L--x-x-|
-------------------|--7----------------|--L------------L------|
--0----------------|--0----------------|--L------------L------|


  H.           A chord diagramE MajorE  S S    W                   W
----------------------|-------------------|-------------------|
----------------------|--3----------------|-------------------|
--0------------L------|--2----------------|--9----------------|
--0------------L--x-x-|--0----------------|--9----------------|
------------------x-x-|-------------------|--7----------------|
--3------------L------|-------------------|--0----------------|


  A chord diagramE MajorE     W
---------------------|---------------------|-------------------|
------------------x--|---------------------|--3----------------|
--L---------------x--|--0------------L--x--|--2----------------|
--L---------------x--|--0------------L--x--|--0----------------|
--L------------------|------------------x--|-------------------|
--L------------------|--3------------L-----|-------------------|


  W                   A chord diagramE MajorE     W
-------------------|---------------------|-------------------|
-------------------|------------------x--|-------------------|
--9----------------|--L---------------x--|--0----------------|
--9----------------|--L---------------x--|--0----------------|
--7----------------|--L------------------|-------------------|
--0----------------|--L------------------|--3----------------|


  W                   W                   A chord diagramE MajorE
-------------------|-------------------|---------------------|
--3----------------|-------------------|------------------x--|
--2----------------|--9----------------|--L---------------x--|
--0----------------|--9----------------|--L---------------x--|
-------------------|--7----------------|--L------------------|
-------------------|--0----------------|--L------------------|


                                                    PM PM PM    PM
  A chord diagramE MajorE
---------------------|----------------------|-------------------------|
---------------------|----------------------|-------------------------|
--7------------L--x--|--7-------------------|-------------------------|
--5------------L--x--|--7-------------------|--5-------------7-----9--|
------------------x--|----------------------|--3-------------5-----7--|
---------------------|---------------17\----|-------0--0--0-----0-----|


                     PM         PM PM PM    PM
  Q    A chord diagramE MajorE
------------------------|-------------------------|------------------------|
------------------------|-------------------------|-------8-----8----------|
------------------------|-------------------------|-------7-----7--9-------|
--L----9-----7--9-------|--5-------------7-----9--|--L-------------9-------|
--L----7-----5--7-------|--3-------------5-----7--|--L---------------------|
---------------------0--|-------0--0--0-----0-----|---------------------0--|


  Q    H        Q       W
-------------------------|----------------------|-------------------|
-------------------------|----------------------|-------------------|
-------------------------|----------------------|-------------------|
--5-------------7-----9--|--9--9----------------|--9----------------|
--3-------------5-----9--|--9--9----------------|--7----------------|
-------0--0--0-----0--7--|--7--7----------------|-------------------|


  W                   W                   A chord diagramE MajorE
-------------------|-------------------|---------------------|
-------------------|-------------------|---------------------|
-------------------|-------------------|---------------------|
--5----------------|--7----------------|--7------------------|
--3----------------|--4----------------|--5------------------|
-------------------|-------------------|---------------3--2--|


  W                   W                   Q.     Q.     Q
-------------------|-------------------|---------------------|
-------------------|-------------------|---------------------|
-------------------|-------------------|---------------------|
--9----------------|--5----------------|--5------7------L----|
--7----------------|--3----------------|--3------5------L----|
--0----------------|-------------------|---------------------|


  A chord diagramE MajorE  S S
------------------------|-------------------|----------------------|
------------------------|-------------------|------------------x-x-|
------------------------|--9----------------|--L------------L--x-x-|
------------------------|--9----------------|--L------------L--x-x-|
--2--2--2--2--2---------|--7----------------|--L------------L------|
------------------------|--0----------------|--L------------L------|


  H.           A chord diagramE MajorE  S S    W                   W
----------------------|-------------------|-------------------|
----------------------|--3----------------|-------------------|
--0------------L------|--2----------------|--9----------------|
--0------------L--x-x-|--0----------------|--9----------------|
------------------x-x-|-------------------|--7----------------|
--3------------L------|-------------------|--0----------------|


  A chord diagramE MajorE     W
---------------------|---------------------|-------------------|
------------------x--|---------------------|--3----------------|
--L---------------x--|--0------------L--x--|--2----------------|
--L---------------x--|--0------------L--x--|--0----------------|
--L------------------|------------------x--|-------------------|
--L------------------|--3------------L-----|-------------------|


  W                   A chord diagramE MajorE     W
-------------------|---------------------|-------------------|
-------------------|------------------x--|-------------------|
--9----------------|--L---------------x--|--0----------------|
--9----------------|--L---------------x--|--0----------------|
--7----------------|--L------------------|-------------------|
--0----------------|--L------------------|--3----------------|


  W                   W                   A chord diagramE MajorE
-------------------|-------------------|---------------------|
--3----------------|-------------------|------------------x--|
--2----------------|--9----------------|--L---------------x--|
--0----------------|--9----------------|--L---------------x--|
-------------------|--7----------------|--L------------------|
-------------------|--0----------------|--L------------------|


                                                    PM PM PM    PM
  A chord diagramE MajorE
---------------------|----------------------|-------------------------|
---------------------|----------------------|-------------------------|
--7------------L--x--|--7-------------------|-------------------------|
--5------------L--x--|--7-------------------|--5-------------7-----9--|
------------------x--|----------------------|--3-------------5-----7--|
---------------------|---------------17\----|-------0--0--0-----0-----|


                     PM         PM PM PM    PM
  Q    A chord diagramE MajorE
------------------------|-------------------------|------------------------|
------------------------|-------------------------|-------8-----8----------|
------------------------|-------------------------|-------7-----7--9-------|
--L----9-----7--9-------|--5-------------7-----9--|--L-------------9-------|
--L----7-----5--7-------|--3-------------5-----7--|--L---------------------|
---------------------0--|-------0--0--0-----0-----|---------------------0--|


  Q    H        Q       W
-------------------------|----------------------|-------------------|
-------------------------|----------------------|-------------------|
-------------------------|----------------------|-------------------|
--5-------------7-----9--|--9--9----------------|--9----------------|
--3-------------5-----9--|--9--9----------------|--7----------------|
-------0--0--0-----0--7--|--7--7----------------|-------------------|


  W                   W                   A chord diagramE MajorE
-------------------|-------------------|---------------------|
-------------------|-------------------|---------------------|
-------------------|-------------------|---------------------|
--5----------------|--7----------------|--7------------------|
--3----------------|--4----------------|--5------------------|
-------------------|-------------------|---------------3--2--|


  W                   W                   Q.     Q.     Q
-------------------|-------------------|---------------------|
-------------------|-------------------|---------------------|
-------------------|-------------------|---------------------|
--9----------------|--5----------------|--5------7------L----|
--7----------------|--3----------------|--3------5------L----|
--0----------------|-------------------|---------------------|


  W                   W                   W
-------------------|-------------------|-------------------|
-------------------|-------------------|-------------------|
-------------------|-------------------|-------------------|
--9----------------|--5----------------|--7----------------|
--7----------------|--3----------------|--4----------------|
-------------------|-------------------|-------------------|


  A chord diagramE MajorE     W                   W
---------------------|-------------------|-------------------|
---------------------|-------------------|-------------------|
---------------------|-------------------|-------------------|
--7------------------|--9----------------|--5----------------|
--5------------------|--7----------------|--3----------------|
---------------3--2--|--0----------------|-------------------|


  Q.     Q.     Q       A chord diagramE MajorE  Q.        W
---------------------|------------------------|-------------------|
---------------------|------------------------|-------------------|
---------------------|------------------------|-------------------|
--5------7------L----|--4--4--4--4--4---------|-------------------|
--3------5------L----|--2--2--2--2--2---------|-------------------|
---------------------|------------------------|-------------------|


  W                   W                   W                   W
-------------------|-------------------|-------------------|-------------------|
-------------------|-------------------|-------------------|-------------------|
-------------------|-------------------|-------------------|-------------------|
-------------------|-------------------|-------------------|-------------------|
-------------------|-------------------|-------------------|-------------------|
-------------------|-------------------|-------------------|-------------------|


  W                   W                   W                   W
-------------------|-------------------|-------------------|-------------------|
-------------------|-------------------|-------------------|-------------------|
-------------------|-------------------|-------------------|-------------------|
-------------------|-------------------|-------------------|-------------------|
-------------------|-------------------|-------------------|-------------------|
-------------------|-------------------|-------------------|-------------------|


  W                   W                   W                   W
-------------------|-------------------|-------------------|-------------------|
-------------------|-------------------|-------------------|-------------------|
-------------------|-------------------|-------------------|-------------------|
-------------------|-------------------|-------------------|-------------------|
-------------------|-------------------|-------------------|-------------------|
-------------------|-------------------|-------------------|-------------------|


  W                   W                   W                   W
-------------------|-------------------|-------------------|-------------------|
-------------------|-------------------|-------------------|-------------------|
-------------------|-------------------|-------------------|-------------------|
-------------------|-------------------|-------------------|-------------------|
-------------------|-------------------|-------------------|-------------------|
-------------------|-------------------|-------------------|-------------------|


  W                   W                   W                   W
-------------------|-------------------|-------------------|-------------------|
-------------------|-------------------|-------------------|-------------------|
-------------------|-------------------|-------------------|-------------------|
-------------------|-------------------|-------------------|-------------------|
-------------------|-------------------|-------------------|-------------------|
-------------------|-------------------|-------------------|-------------------|


  W                   W                   W                   W
-------------------|-------------------|-------------------|-------------------|
-------------------|-------------------|-------------------|-------------------|
-------------------|-------------------|-------------------|-------------------|
-------------------|-------------------|-------------------|-------------------|
-------------------|-------------------|-------------------|-------------------|
-------------------|-------------------|-------------------|-------------------|


  W                   W                   W                   W
-------------------|-------------------|-------------------|-------------------|
-------------------|-------------------|-------------------|-------------------|
-------------------|-------------------|-------------------|-------------------|
-------------------|-------------------|-------------------|-------------------|
-------------------|-------------------|-------------------|-------------------|
-------------------|-------------------|-------------------|-------------------|


  W                   W                   W                   W
-------------------|-------------------|-------------------|-------------------|
-------------------|-------------------|-------------------|-------------------|
-------------------|-------------------|-------------------|-------------------|
-------------------|-------------------|-------------------|-------------------|
-------------------|-------------------|-------------------|-------------------|
-------------------|-------------------|-------------------|-------------------|


  W                   W                   W                   W
-------------------|-------------------|-------------------|-------------------|
-------------------|-------------------|-------------------|-------------------|
-------------------|-------------------|-------------------|-------------------|
-------------------|-------------------|-------------------|-------------------|
-------------------|-------------------|-------------------|-------------------|
-------------------|-------------------|-------------------|-------------------|


  W                   W                   W                   W
-------------------|-------------------|-------------------|-------------------|
-------------------|-------------------|-------------------|-------------------|
-------------------|-------------------|-------------------|-------------------|
-------------------|-------------------|-------------------|-------------------|
-------------------|-------------------|-------------------|-------------------|
-------------------|-------------------|-------------------|-------------------|


  W                   W                   W                   W
-------------------|-------------------|-------------------|-------------------|
-------------------|-------------------|-------------------|-------------------|
-------------------|-------------------|-------------------|-------------------|
-------------------|-------------------|-------------------|-------------------|
-------------------|-------------------|-------------------|-------------------|
-------------------|-------------------|-------------------|-------------------|


                           PM PM PM    PM                          PM
  W                   Q    A chord diagramE MajorE
-------------------|-------------------------|------------------------|
-------------------|-------------------------|------------------------|
-------------------|-------------------------|------------------------|
-------------------|--5-------------7-----9--|--L----9-----7--9-------|
-------------------|--3-------------5-----7--|--L----7-----5--7-------|
-------------------|-------0--0--0-----0-----|---------------------0--|


       PM PM PM    PM
  Q    A chord diagramE MajorE
-------------------------|------------------------|-------------------------|
-------------------------|-------8-----8----------|-------------------------|
-------------------------|-------7-----7--9-------|-------------------------|
--5-------------7-----9--|--L-------------9-------|--5-------------7-----9--|
--3-------------5-----7--|--L---------------------|--3-------------5-----9--|
-------0--0--0-----0-----|---------------------0--|-------0--0--0-----0--7--|


  H        Q       W                   W
----------------------|-------------------|-------------------|
----------------------|-------------------|-------------------|
----------------------|-------------------|-------------------|
--9--9----------------|--9----------------|--5----------------|
--9--9----------------|--7----------------|--3----------------|
--7--7----------------|-------------------|-------------------|


  W                   A chord diagramE MajorE     W
-------------------|---------------------|-------------------|
-------------------|---------------------|-------------------|
-------------------|---------------------|-------------------|
--7----------------|--7------------------|--9----------------|
--4----------------|--5------------------|--7----------------|
-------------------|---------------3--2--|--0----------------|


  W                   Q.     Q.     Q       W
-------------------|---------------------|-------------------|
-------------------|---------------------|-------------------|
-------------------|---------------------|-------------------|
--5----------------|--5------7------L----|--9----------------|
--3----------------|--3------5------L----|--7----------------|
-------------------|---------------------|-------------------|


  W                   W                   A chord diagramE MajorE
-------------------|-------------------|---------------------|
-------------------|-------------------|---------------------|
-------------------|-------------------|---------------------|
--5----------------|--7----------------|--7------------------|
--3----------------|--4----------------|--5------------------|
-------------------|-------------------|---------------3--2--|


  W                   W                   Q.     Q.     Q
-------------------|-------------------|---------------------|
-------------------|-------------------|---------------------|
-------------------|-------------------|---------------------|
--9----------------|--5----------------|--5------7------L----|
--7----------------|--3----------------|--3------5------L----|
--0----------------|-------------------|---------------------|


  W                   W                   W
-------------------|-------------------|-------------------|
-------------------|-------------------|-------------------|
-------------------|-------------------|-------------------|
--9----------------|--5----------------|--7----------------|
--7----------------|--3----------------|--4----------------|
-------------------|-------------------|-------------------|


  A chord diagramE MajorE     W                   W
---------------------|-------------------|-------------------|
---------------------|-------------------|-------------------|
---------------------|-------------------|-------------------|
--7------------------|--9----------------|--5----------------|
--5------------------|--7----------------|--3----------------|
---------------3--2--|--0----------------|-------------------|


  Q.     Q.     Q       S S S S S S S S A chord diagramE MajorE  Q.        W
---------------------|----------------------------|-------------------|
---------------------|----------------------------|-------------------|
---------------------|----------------------------|-------------------|
--5------7------L----|--4-4-4-4-4-4-4-4-4---------|-------------------|
--3------5------L----|--2-2-2-2-2-2-2-2-2---------|-------------------|
---------------------|----------------------------|-------------------|


  W                   W                   W                   W
-------------------|-------------------|-------------------|-------------------|
-------------------|-------------------|-------------------|-------------------|
-------------------|-------------------|-------------------|-------------------|
-------------------|-------------------|-------------------|-------------------|
-------------------|-------------------|-------------------|-------------------|
-------------------|-------------------|-------------------|-------------------|


  W                   W                   W
-------------------|-------------------|-------------------||
-------------------|-------------------|-------------------||
-------------------|-------------------|-------------------||
-------------------|-------------------|-------------------||
-------------------|-------------------|-------------------||
-------------------|-------------------|-------------------||







Guitar 2  - fills throughout


     W                   W                   W
A chord diagramE MajorE||-------------------|-------------------|-------------------|
A chord diagramBB||-------------------|-------------------|-------------------|
A chord diagramG+G||-------------------|-------------------|-------------------|
A chord diagramD MajorD||-------------------|-------------------|-------------------|
A chord diagramA augmentedA||-------------------|-------------------|-------------------|
A chord diagramE MajorE||-------------------|-------------------|-------------------|


  W                   W                   W                   W
-------------------|-------------------|-------------------|-------------------|
-------------------|-------------------|-------------------|-------------------|
-------------------|-------------------|-------------------|-------------------|
-------------------|-------------------|-------------------|-------------------|
-------------------|-------------------|-------------------|-------------------|
-------------------|-------------------|-------------------|-------------------|


  W                   W                   W                   W
-------------------|-------------------|-------------------|-------------------|
-------------------|-------------------|-------------------|-------------------|
-------------------|-------------------|-------------------|-------------------|
-------------------|-------------------|-------------------|-------------------|
-------------------|-------------------|-------------------|-------------------|
-------------------|-------------------|-------------------|-------------------|


  W                   W                   W                   W
-------------------|-------------------|-------------------|-------------------|
-------------------|-------------------|-------------------|-------------------|
-------------------|-------------------|-------------------|-------------------|
-------------------|-------------------|-------------------|-------------------|
-------------------|-------------------|-------------------|-------------------|
-------------------|-------------------|-------------------|-------------------|


  W                   W                   W                   W
-------------------|-------------------|-------------------|-------------------|
-------------------|-------------------|-------------------|-------------------|
-------------------|-------------------|-------------------|-------------------|
-------------------|-------------------|-------------------|-------------------|
-------------------|-------------------|-------------------|-------------------|
-------------------|-------------------|-------------------|-------------------|


  W                   W                   W                   W
-------------------|-------------------|-------------------|-------------------|
-------------------|-------------------|-------------------|-------------------|
-------------------|-------------------|-------------------|-------------------|
-------------------|-------------------|-------------------|-------------------|
-------------------|-------------------|-------------------|-------------------|
-------------------|-------------------|-------------------|-------------------|


                 NH        \1/                   \1
  H.             Q         W                     W
----------------------|---------------------|---------------------|
----------------------|---------------------|---------------------|
---------------<>5----|--<>L----------------|--<>5----------------|
----------------------|---------------------|---------------------|
----------------------|---------------------|---------------------|
----------------------|---------------------|---------------------|


  W                   W                   W                   W
-------------------|-------------------|-------------------|-------------------|
-------------------|-------------------|-------------------|-------------------|
-------------------|-------------------|-------------------|-------------------|
-------------------|-------------------|-------------------|-------------------|
-------------------|-------------------|-------------------|-------------------|
-------------------|-------------------|-------------------|-------------------|


                                           \1
  W                   W                    W
-------------------|-------------------|--------------------|
-------------------|-------------------|--17----------------|
-------------------|-------------------|--------------------|
-------------------|-------------------|--------------------|
-------------------|-------------------|--------------------|
-------------------|-------------------|--------------------|


  W                   W                   W                   W
-------------------|-------------------|-------------------|-------------------|
-------------------|-------------------|-------------------|-------------------|
-------------------|-------------------|-------------------|-------------------|
-------------------|-------------------|-------------------|-------------------|
-------------------|-------------------|-------------------|-------------------|
-------------------|-------------------|-------------------|-------------------|


  W                   W                   W
-------------------|-------------------|-------------------|
-------------------|-------------------|-------------------|
-------------------|-------------------|-------------------|
-------------------|-------------------|-------------------|
-------------------|-------------------|-------------------|
-------------------|-------------------|-------------------|


  A chord diagramE MajorE
--------------3----------|--------------3----------|--------------3----------|
--------5--------5-------|--------5--------5-------|--------5--------5-------|
-----4-----4-------------|-----4-----4-------------|-----4-----4-------------|
--2----------------------|-------------------------|-------------------------|
-------------------------|--3----------------------|--4----------------------|
-------------------------|-------------------------|-------------------------|


  A chord diagramE MajorE
--------------3--2--0--2--|--------------3----------|--------------3----------|
--------5-----------------|--------5--------5-------|--------5--------5-------|
-----4-----4--------------|-----4-----4-------------|-----4-----4-------------|
--0-----------------------|--2----------------------|-------------------------|
--------------------------|-------------------------|--3----------------------|
--------------------------|-------------------------|-------------------------|


  W                   W                   W                   W
-------------------|-------------------|-------------------|-------------------|
-------------------|-------------------|-------------------|-------------------|
-------------------|-------------------|-------------------|-------------------|
-------------------|-------------------|-------------------|-------------------|
-------------------|-------------------|-------------------|-------------------|
-------------------|-------------------|-------------------|-------------------|


  Q    A chord diagramE MajorE     W
------------------------|------------------------|-------------------|
-------8-----8----------|-------8-----8----------|-------------------|
-------7-----7--9-------|-------7-----7--9-------|-------------------|
----------------9-------|----------------9-------|-------------------|
------------------------|------------------------|-------------------|
------------------------|------------------------|-------------------|


  W                   W                    W
-------------------|--------------------|-------------------|
-------------------|--------------------|-------------------|
-------------------|--2b----------------|--2----------------|
-------------------|--------------------|-------------------|
-------------------|--------------------|-------------------|
-------------------|--------------------|-------------------|


  W                   W                    W
-------------------|-------------------|--------------------|
-------------------|-------------------|--------------------|
-------------------|-------------------|--12----------------|
-------------------|-------------------|--12----------------|
-------------------|-------------------|--------------------|
-------------------|-------------------|--------------------|


                       \1                  \2
  W                    W                   H.             S  A chord diagramE MajorE   S
--------------------|-------------------|-------------------12-----|
--------------------|-------------------|---------------/12-----12-|
--7~----------------|--9----------------|--L-----------------------|
--7~----------------|-------------------|--------------------------|
--------------------|-------------------|--------------------------|
--------------------|-------------------|--------------------------|


   H.             S  S  S  S
-----------------15-12-15-12-|
--15b------------------------|
-----------------------------|
-----------------------------|
-----------------------------|
-----------------------------|


   S  S  S  S  S  S  S  S  S  S  S  S  S  S  S  S     H          A chord diagramE MajorE   Q.
--15-12-15-12-15-12-15-12-15-12-15-12-15-12-15-12-|-------------------------|
--------------------------------------------------|--15b--------15\---------|
--------------------------------------------------|-------------------------|
--------------------------------------------------|-------------------------|
--------------------------------------------------|-------------------------|
--------------------------------------------------|-------------------------|


  W                   W                   W                   W
-------------------|-------------------|-------------------|-------------------|
-------------------|-------------------|-------------------|-------------------|
-------------------|-------------------|-------------------|-------------------|
-------------------|-------------------|-------------------|-------------------|
-------------------|-------------------|-------------------|-------------------|
-------------------|-------------------|-------------------|-------------------|


  W                   A chord diagramE MajorE
-------------------|--------------3----------|--------------3----------|
-------------------|--------5--------5-------|--------5--------5-------|
-------------------|-----4-----4-------------|-----4-----4-------------|
-------------------|--2----------------------|-------------------------|
-------------------|-------------------------|--3----------------------|
-------------------|-------------------------|-------------------------|


  A chord diagramE MajorE
--------------3----------|--------------3--2--0--2--|--------------3----------|
--------5--------5-------|--------5-----------------|--------5--------5-------|
-----4-----4-------------|-----4-----4--------------|-----4-----4-------------|
-------------------------|--0-----------------------|--2----------------------|
--4----------------------|--------------------------|-------------------------|
-------------------------|--------------------------|-------------------------|


  A chord diagramE MajorE
--------------3----------|---------------------|--------------3----------|
--------5--------5-------|---------3------L----|--------5--------5-------|
-----4-----4-------------|--0------2------L----|-----4-----4-------------|
-------------------------|--2------0------L----|--2----------------------|
--3----------------------|--3------------------|-------------------------|
-------------------------|---------------------|-------------------------|


  A chord diagramE MajorE
--------------3----------|--------------3----------|--------------3--2--0--2--|
--------5--------5-------|--------5--------5-------|--------5-----------------|
-----4-----4-------------|-----4-----4-------------|-----4-----4--------------|
-------------------------|-------------------------|--0-----------------------|
--3----------------------|--4----------------------|--------------------------|
-------------------------|-------------------------|--------------------------|


  A chord diagramE MajorE     W
--------------3----------|--------------3----------|-------------------|
--------5--------5-------|--------5--------5-------|-------------------|
-----4-----4-------------|-----4-----4-------------|-------------------|
--2----------------------|-------------------------|-------------------|
-------------------------|--3----------------------|-------------------|
-------------------------|-------------------------|-------------------|


  W                   W                   W                   W
-------------------|-------------------|-------------------|-------------------|
-------------------|-------------------|-------------------|-------------------|
-------------------|-------------------|-------------------|-------------------|
-------------------|-------------------|-------------------|-------------------|
-------------------|-------------------|-------------------|-------------------|
-------------------|-------------------|-------------------|-------------------|


  W                   W                   W                   W
-------------------|-------------------|-------------------|-------------------|
-------------------|-------------------|-------------------|-------------------|
-------------------|-------------------|-------------------|-------------------|
-------------------|-------------------|-------------------|-------------------|
-------------------|-------------------|-------------------|-------------------|
-------------------|-------------------|-------------------|-------------------|


  W                   W                   W                   W
-------------------|-------------------|-------------------|-------------------|
-------------------|-------------------|-------------------|-------------------|
-------------------|-------------------|-------------------|-------------------|
-------------------|-------------------|-------------------|-------------------|
-------------------|-------------------|-------------------|-------------------|
-------------------|-------------------|-------------------|-------------------|


  W                   W                   W                   W
-------------------|-------------------|-------------------|-------------------|
-------------------|-------------------|-------------------|-------------------|
-------------------|-------------------|-------------------|-------------------|
-------------------|-------------------|-------------------|-------------------|
-------------------|-------------------|-------------------|-------------------|
-------------------|-------------------|-------------------|-------------------|


  W                   W                   W                   W
-------------------|-------------------|-------------------|-------------------|
-------------------|-------------------|-------------------|-------------------|
-------------------|-------------------|-------------------|-------------------|
-------------------|-------------------|-------------------|-------------------|
-------------------|-------------------|-------------------|-------------------|
-------------------|-------------------|-------------------|-------------------|


  W                   W                   W                   W
-------------------|-------------------|-------------------|-------------------|
-------------------|-------------------|-------------------|-------------------|
-------------------|-------------------|-------------------|-------------------|
-------------------|-------------------|-------------------|-------------------|
-------------------|-------------------|-------------------|-------------------|
-------------------|-------------------|-------------------|-------------------|


  W                   W                   W                   W
-------------------|-------------------|-------------------|-------------------|
-------------------|-------------------|-------------------|-------------------|
-------------------|-------------------|-------------------|-------------------|
-------------------|-------------------|-------------------|-------------------|
-------------------|-------------------|-------------------|-------------------|
-------------------|-------------------|-------------------|-------------------|


  W                   W                   W                   W
-------------------|-------------------|-------------------|-------------------|
-------------------|-------------------|-------------------|-------------------|
-------------------|-------------------|-------------------|-------------------|
-------------------|-------------------|-------------------|-------------------|
-------------------|-------------------|-------------------|-------------------|
-------------------|-------------------|-------------------|-------------------|


  W                   W                   W                   W
-------------------|-------------------|-------------------|-------------------|
-------------------|-------------------|-------------------|-------------------|
-------------------|-------------------|-------------------|-------------------|
-------------------|-------------------|-------------------|-------------------|
-------------------|-------------------|-------------------|-------------------|
-------------------|-------------------|-------------------|-------------------|


  W                   W                   W                   W
-------------------|-------------------|-------------------|-------------------|
-------------------|-------------------|-------------------|-------------------|
-------------------|-------------------|-------------------|-------------------|
-------------------|-------------------|-------------------|-------------------|
-------------------|-------------------|-------------------|-------------------|
-------------------|-------------------|-------------------|-------------------|


  W                   W                   W                   W
-------------------|-------------------|-------------------|-------------------|
-------------------|-------------------|-------------------|-------------------|
-------------------|-------------------|-------------------|-------------------|
-------------------|-------------------|-------------------|-------------------|
-------------------|-------------------|-------------------|-------------------|
-------------------|-------------------|-------------------|-------------------|


  W                   W                   W                   W
-------------------|-------------------|-------------------|-------------------|
-------------------|-------------------|-------------------|-------------------|
-------------------|-------------------|-------------------|-------------------|
-------------------|-------------------|-------------------|-------------------|
-------------------|-------------------|-------------------|-------------------|
-------------------|-------------------|-------------------|-------------------|


  W                   W                   W                   W
-------------------|-------------------|-------------------|-------------------|
-------------------|-------------------|-------------------|-------------------|
-------------------|-------------------|-------------------|-------------------|
-------------------|-------------------|-------------------|-------------------|
-------------------|-------------------|-------------------|-------------------|
-------------------|-------------------|-------------------|-------------------|


  W                   A chord diagramE MajorE
-------------------|--------------3----------|--------------3----------|
-------------------|--------5--------5-------|--------5--------5-------|
-------------------|-----4-----4-------------|-----4-----4-------------|
-------------------|--2----------------------|-------------------------|
-------------------|-------------------------|--3----------------------|
-------------------|-------------------------|-------------------------|


  A chord diagramE MajorE
--------------3----------|--------------3--2--0--2--|--------------3----------|
--------5--------5-------|--------5-----------------|--------5--------5-------|
-----4-----4-------------|-----4-----4--------------|-----4-----4-------------|
-------------------------|--0-----------------------|--2----------------------|
--4----------------------|--------------------------|-------------------------|
-------------------------|--------------------------|-------------------------|


  A chord diagramE MajorE
--------------3----------|---------------------|--------------3----------|
--------5--------5-------|---------3------L----|--------5--------5-------|
-----4-----4-------------|--0------2------L----|-----4-----4-------------|
-------------------------|--2------0------L----|--2----------------------|
--3----------------------|--3------------------|-------------------------|
-------------------------|---------------------|-------------------------|


  A chord diagramE MajorE
--------------3----------|--------------3----------|--------------3--2--0--2--|
--------5--------5-------|--------5--------5-------|--------5-----------------|
-----4-----4-------------|-----4-----4-------------|-----4-----4--------------|
-------------------------|-------------------------|--0-----------------------|
--3----------------------|--4----------------------|--------------------------|
-------------------------|-------------------------|--------------------------|


  A chord diagramE MajorE     Q.     Q.     Q
--------------3----------|--------------3----------|---------------------|
--------5--------5-------|--------5--------5-------|---------3------L----|
-----4-----4-------------|-----4-----4-------------|--0------2------L----|
--2----------------------|-------------------------|--2------0------L----|
-------------------------|--3----------------------|--3------------------|
-------------------------|-------------------------|---------------------|


  A chord diagramE MajorE
--------------3----------|--------------3----------|--------------3----------|
--------5--------5-------|--------5--------5-------|--------5--------5-------|
-----4-----4-------------|-----4-----4-------------|-----4-----4-------------|
--2----------------------|-------------------------|-------------------------|
-------------------------|--3----------------------|--4----------------------|
-------------------------|-------------------------|-------------------------|


  A chord diagramE MajorE
--------------3--2--0--2--|--------------3----------|--------------3----------|
--------5-----------------|--------5--------5-------|--------5--------5-------|
-----4-----4--------------|-----4-----4-------------|-----4-----4-------------|
--0-----------------------|--2----------------------|-------------------------|
--------------------------|-------------------------|--3----------------------|
--------------------------|-------------------------|-------------------------|







Guitar - solo




   <                    <
   W                    W
--------------------|--------------------|
--------------------|--------------------|
--12----------------|--12----------------|
--12----------------|--12----------------|
--------------------|--------------------|
--------------------|--------------------|


            pick slide
   <
   H        T          T T T T T T T T T T T T T T T    A chord diagramE MajorE  H        Q.
------------x----------x-x---------------------------|----------------------|
------------x----------x-x-x-x-x---------------------|----------------------|
--12-----------------------x-x-x-x-x-x---------------|--7--9--------L\------|
--12-----------------------------x-x-x-x-x-x---------|--7--9--------L\------|
---------------------------------------x-x-x-x-x-x-x-|----------------------|
---------------------------------------------x-x-x-x-|----------------------|


  W                   W                   W
-------------------|-------------------|-------------------|
-------------------|-------------------|-------------------|
-------------------|-------------------|-------------------|
-------------------|-------------------|-------------------|
-------------------|-------------------|-------------------|
-------------------|-------------------|-------------------|


                                     pick slide
   <                    <
   W                    H.           T          T T T T T T T
--------------------|----------------x----------x-------------|
--10----------------|--10------------x----------x-x-----------|
---9----------------|---9-------------------------x-x---------|
--------------------|-------------------------------x-x-x-----|
--------------------|---------------------------------x-x-x---|
--------------------|-----------------------------------x-x-x-|


  A chord diagramE MajorE    Q.
----------------------|----------------------|---------------------------|
--8-------------------|------------------3---|--L----------L-------------|
--7--9--------L\------|------------------2b--|--Lpb--------Lpb--2pb------|
-----9--------L\------|----------------------|---------------------------|
----------------------|----------------------|---------------------------|
----------------------|----------------------|---------------------------|


  Q.        A chord diagramE MajorE      W                      W
----------------------------------|----------------------|---------------------|
----------------------------------|----------------------|---------------------|
--2pbr------2pbr---2pbr---2b--2b--|--2pbr----------------|--2pb----------------|
----------------------------------|----------------------|---------------------|
----------------------------------|----------------------|---------------------|
----------------------------------|----------------------|---------------------|


  A chord diagramE MajorE     W
----------------------|-----------------------|--------------------|
----------------------|--------------------5--|--7b----------------|
--0-------------------|---------------/4------|--------------------|
-----2~------------L--|--L--------------------|--------------------|
----------------------|-----------------------|--------------------|
----------------------|-----------------------|--------------------|


                                              \1
  W                     H.            Q       W
---------------------|---------------------|-------------------|
--7pb----------------|--7b------------5----|-------------------|
---------------------|---------------------|--0----------------|
---------------------|---------------------|-------------------|
---------------------|---------------------|-------------------|
---------------------|---------------------|-------------------|


  \1
  E.
-----------------------|-------------------|------------------------|
-----------------------|-------------------|-------------------17---|
--L--------------------|-------------------|--------------16--------|
-----------------------|-------------------|------------------------|
-----------------------|-------------------|------------------------|
---------------/17\----|--0----------------|--L---------------------|


                                                             |---3--|
   H          A chord diagramE MajorE   Q      A chord diagramE MajorE       E.    Q      S  A chord diagramE MajorE    Q      S   S  S
-----------------------------|----------------------------------------|
--19b---------L--19b----19b--|--19b---19b-----L-19b--19b----15h-17-17-|
-----------------------------|----------------------------------------|
-----------------------------|----------------------------------------|
-----------------------------|----------------------------------------|
-----------------------------|----------------------------------------|


   W                     A chord diagramE MajorE
---------------------|--------------------------|
---------------------|-------------5/------15b--|
--16~----------------|--16\---------------------|
---------------------|--------------------------|
---------------------|--------------------------|
---------------------|--------------------------|


                          |---3--|             |---3--|          |---3--|
   Q.        Q.       A chord diagramE MajorE   S  S   S     Q.      S  S   S  Q.      S  S   S
-------------------------12--------|----------12----------------12--------|
---Lpb------15b-------L-----15p-12-|--15---------15p-12-15---------15p-12-|
-----------------------------------|--------------------------------------|
-----------------------------------|--------------------------------------|
-----------------------------------|--------------------------------------|
-----------------------------------|--------------------------------------|


   A chord diagramE MajorE
--------------------------|--15-------------L------|
--15---------L--17--------|--------------------15--|
---------------------16---|------------------------|
--------------------------|------------------------|
--------------------------|------------------------|
--------------------------|------------------------|


   A chord diagramE MajorE
--14--------13--------12------|---------------------------|
-------14--------13-------12--|---------------------------|
------------------------------|--7--7---------------------|
------------------------------|--------9--7---------------|
------------------------------|--------------10--7--------|
------------------------------|---------------------0--0--|


           pick slide
  H        T          T T T T T T T T T T T T T T T
-----------x----------x-x---------------------------|
-----------x----------x-x-x-x-x---------------------|
--------------------------x-x-x-x-x-x---------------|
--------------------------------x-x-x-x-x-x---------|
--------------------------------------x-x-x-x-x-x-x-|
--L-----------------------------------------x-x-x-x-|


  A chord diagramE MajorE
---------------------------|----------------------|--------------3--0--------|
---------------------------|----------------------|--3--3--0-----------------|
--7--7---------------------|---------2b--------L--|-----------2--------------|
--------9--7---------------|----------------------|--------------------------|
--------------10--7--------|----------------------|--------------------------|
---------------------0--0--|--L-------------------|--------------------0--0--|


           pick slide
  H        T          T T T T T T T T T T T T T T T    A chord diagramE MajorE  A chord diagramE MajorE  A chord diagramE MajorE  A chord diagramE MajorE  A chord diagramE MajorE  A chord diagramE MajorE  A chord diagramE MajorE  A chord diagramE MajorE
-----------x----------x-x---------------------------|--------------------------|
-----------x----------x-x-x-x-x---------------------|--3--3--0-----------------|
--------------------------x-x-x-x-x-x---------------|-----------2--0-----------|
--------------------------------x-x-x-x-x-x---------|-----------------2--------|
--------------------------------------x-x-x-x-x-x-x-|--------------------------|
--L-----------------------------------------x-x-x-x-|--------------------0--0--|


  Q.      Q.       A chord diagramE MajorE  S S    A chord diagramE MajorE  Q     S  S  A chord diagramE MajorE  S S A chord diagramE MajorE  S S
---------10b~-------------|----------12-12-12-------------|
-------------------8--x-x-|--8-----------------x-x-8--x-x-|
-------------------7--x-x-|--7--9-----9--9--9--x-x-7--x-x-|
--------------------------|-----9-------------------------|
--------------------------|-------------------------------|
--L-----------------------|-------------------------------|


  A chord diagramE MajorE  Q.      H            W                   W
------------12\--------|-------------------|-------------------|
--8--------------------|-------------------|-------------------|
--7--9-------9\--------|-------------------|-------------------|
-----------------------|-------------------|-------------------|
-----------------------|-------------------|-------------------|
-----------------------|-------------------|-------------------|





Duration 🏷Legend
---------------
W - whole
H - half
Q - quarter
A chord diagramE MajorE - 8th
S - 16th
T - 32nd
X - 64th
. - note dotted
|-n-|  - n-tuplets


Tablature 🏷Legend
----------------
L - tied note
x - dead note
g - grace note
(n) - ghost note
> - accentuded note
NH - natural harmonic
AH - artificial harmonic
TH - tapped harmonic
SH - semi harmonic
PH - pitch harmonic
h - hammer on
p - pull off
b - bend
br - bendRelease
pb - preBend
pbr - preBendRelease
brb - bendReleaseBend
\n/ - tremolo bar dip
\n - tremolo bar dive
-/n - tremolo bar Release up
/n\ - tremolo bar inverted dip
/n - tremolo bar return
-\n - tremolo bar Release down
S - shift slide
s - legato slide
/ -  slide into from below or out of upwards
\ -  slide into from above or out of downwards
~ - vibrato
W - wide vibrato
tr - trill
TP - tremolo picking
T - tapping
S - slap
P - pop
< - fade in
^ - brush up
v - brush down
ⓘ Guitar tab for 'On The Edge' by Great White, a hard rock band formed in 1981 from Los Angeles, California, USA

Almost there ...

Sign in to get your own page with links to favourite songs and more. You are just one click away...

Login with Facebook Login with Google