Log in

One click and you are in

Login with Facebook Login with Google

Why sign up and log in

Guitar Tabs Explorer
Great White bass tabs for Never change heart

Bass tabs with lyrics

Never change Heart - Great White (BASS)

-----------------------------------------------------------------------------
Tabbed by: Scotto10
Tuning: Standard



Bass


   W          W          W
G||-------------------|-------------------|-------------------|
D||-------------------|-------------------|-------------------|
A||-------------------|-------------------|-------------------|
E||-------------------|-------------------|-------------------|


 W          W          W          W
-------------------|-------------------|-------------------|-------------------|
-------------------|-------------------|-------------------|-------------------|
-------------------|-------------------|-------------------|-------------------|
-------------------|-------------------|-------------------|-------------------|


 W          W          W          W
-------------------|-------------------|-------------------|-------------------|
-------------------|-------------------|-------------------|-------------------|
-------------------|-------------------|-------------------|-------------------|
-------------------|-------------------|-------------------|-------------------|

 W          W          E E E E E Q.
-------------------|-------------------|------------------------|
-------------------|-------------------|------------------------|
-------------------|-------------------|--------7--5--7---------|
-------------------|-------------------|--0---------------------|


 E E E E E Q.    E E E E Q  E  E   E E E E E Q.
------------------------|--------------------------|------------------------|
------------------------|--------------------------|------------------------|
--------7--5--7---------|--------7--5--7----7\-----|--------7--5--7---------|
--0---------------------|--0-----------------------|--0---------------------|


 E E E E E Q.    E E E E E Q.    E E E E E Q  E
------------------------|------------------------|-------------------------|
------------------------|------------------------|-------------------------|
--------7--5--7---------|--------7--5--7---------|--------7--5--7-------5--|
--0---------------------|--0---------------------|--0----------------------|


 E E E Q  E E E   E E E E Q.   E   E E E E Q.   E
-------------------------|------------------------|------------------------|
-------------------------|------------------------|------------------------|
--L-----5--3-------5--7--|--------7--5--7---------|--------7--5--7---------|
-----5----------3--------|--0---------------------|--0---------------------|


 E E E E Q.   E   E E E E Q.   E   E E E E Q.   E
------------------------|------------------------|------------------------|
------------------------|------------------------|------------------------|
--------5--7--7---------|--------7--5--7---------|--------7--5--7---------|
--0---------------------|--0---------------------|--0---------------------|


 E E E E Q.   E   E E E E Q  E E   E E E Q  E E E
------------------------|-------------------------|-------------------------|
------------------------|-------------------------|-------------------------|
--------5--7--7---------|--------7--5--7-------5--|--L-----5--3-------5--7--|
--0---------------------|--0----------------------|-----5----------3--------|


 E E E E E E E E   E E E E E E E E
--------------------------|--------------------------|
--------------------------|--------------------------|
--------------------------|--------------------------|
--0-----0-----0-----0-----|--0-----0-----0-----0-----|


 E E E E E E E E   E E E E E E E E
--------------------------|--------------------------|
--------------------------|--------------------------|
--------------------------|--------------------------|
--0-----0-----0-----0-----|--0-----0-----0-----0-----|


 E E E E E E E E   E E E E E E E E
--------------------------|--------------------------|
--------------------------|--------------------------|
--------------------------|--------------------------|
--0-----0-----0-----0-----|--0-----0-----0-----0-----|


 E E E E E E E E   Q  E E E E E E
--------------------------|-------------------------|
--------------------------|-------------------------|
--3-----3-----3-----3--5--|--L----5--6--6--6--6--6--|
--------------------------|-------------------------|


 E S S E E E E E E   E E E E E E E E   Q.   Q.   E E
---------------------------|--------------------------|----------------------|
---------------------------|--------------------------|----------------------|
---------------------------|--------------------------|--3------5---------7--|
--0--0-0-0--0--0--0--0--0--|--0--0--0--0--0--0--0--0--|----------------------|


 E E E E E E E E   E E E E E E E E
--------------------------|--------------------------|
--------------------5--4--|--------------------------|
--L-----------5--7--------|--------------------------|
-----0--0--0--------------|--0--0--0--0--0--0--0--0--|


 E E E E E E E E   Q.   Q.   E E   E E E E E Q.
--------------------------|----------------------|------------------------|
--------------------------|----------------------|------------------------|
--------------------------|--3------5---------7--|--L-----7--5--7---------|
--0--0--0--0--0--0--0--0--|----------------------|------------------------|


 E E E E E Q.    E E E E Q  E  E   E E E E E Q.
------------------------|--------------------------|------------------------|
------------------------|--------------------------|------------------------|
--------7--5--7---------|--------7--5--7----7\-----|--------7--5--7---------|
--0---------------------|--0-----------------------|--0---------------------|


 E E E E E E E E   E E E E E E E E
--------------------------|--------------------------|
--------------------------|--------------------------|
--------------------------|--------------------5--7--|
--0-----0-----0-----0-----|--0-----0-----0-----------|


 E E E E E E E E   E E E E E E E E
--------------------------|--------------------------|
--------------------------|--------------------------|
--------------------7--5--|--------------------------|
--0-----0-----0-----------|--0-----0-----0-----0-----|


 E E E E E E E E   E E E E E E E E
--------------------------|--------------------------|
--------------------------|--------------------------|
--------------------------|--------------------------|
--0-----0-----0-----0-----|--0-----0-----0-----0-----|


 E E E E E E E E   Q  E E E E E E
--------------------------|-------------------------|
--------------------------|-------------------------|
--3-----3-----3-----3--5--|--L----5--6--6--6--6--6--|
--------------------------|-------------------------|


 E S S E E E E E E   E E E E E E E E   Q.   Q.   E E
---------------------------|--------------------------|----------------------|
---------------------------|--------------------------|----------------------|
---------------------------|--------------------------|--3------5---------7--|
--0--0-0-0--0--0--0--0--0--|--0--0--0--0--0--0--0--0--|----------------------|


 E E E E E E E E   E E E E E E E E
--------------------------|--------------------------|
--------------------5--4--|--------------------------|
--L-----------5--7--------|--------------------------|
-----0--0--0--------------|--0--0--0--0--0--0--0--0--|


 E E E E E E E E   Q.   Q.   E E   Q  E E E E E E
--------------------------|----------------------|-------------------------|
--------------------------|----------------------|-------------------------|
--------------------------|--3------5---------7--|--L----------------------|
--0--0--0--0--0--0--0--0--|----------------------|-------7--7--7--5--3--2--|


 E S S E E E E E E   E E E E E E E E   Q.   Q.   E E
---------------------------|--------------------------|----------------------|
---------------------------|--------------------------|----------------------|
---------------------------|--------------------------|--3------5---------7--|
--0--0-0-0--0--0--0--0--0--|--0--0--0--0--0--0--0--0--|----------------------|


 E E E E E E E E   E E E E E E E E
--------------------------|--------------------------|
--------------------5--4--|--------------------------|
--L-----------5--7--------|--------------------------|
-----0--0--0--------------|--0--0--0--0--0--0--0--0--|


 E E E E E E E E   Q.   Q.   E E   Q  E Q  E E E
--------------------------|----------------------|------------------------|
--------------------------|----------------------|------------------------|
--------------------------|--3------5---------2--|--2----2--2----2--2--0--|
--0--0--0--0--0--0--0--0--|----------------------|------------------------|


 W          W          W          W
-------------------|-------------------|-------------------|-------------------|
-------------------|-------------------|-------------------|-------------------|
--3----------------|--4----------------|--5----------------|-------------------|
-------------------|-------------------|-------------------|--0----------------|


 W          W          W
-------------------|-------------------|-------------------|
-------------------|-------------------|-------------------|
--3----------------|--4----------------|--5----------------|
-------------------|-------------------|-------------------|


 H.      E E   E E E E E E E E   E E E E E E E E
---------------------|--------------------------|--------------------------|
---------------------|--------------------------|--------------------------|
--6------------6--6--|--6--6--6--6--6--6--6--6--|--7--------3--------------|
---------------------|--------------------------|-----0--0-----0--0--0--0--|


 E E E E E E E E   E E E E E E E E
--------------------------|--------------------------|
--------------------------|--------------------------|
--5--------7--------5-----|--3--------5--5--5--------|
-----0--0-----0--0-----0--|-----3--0-----------3--0--|


 E E E E E E E E   E E E E E E E E
--------------------------|--------------------------|
--------------0--2--------|--2-----------------------|
--------------------------|-----------3--------------|
--0--0--0--0--------3--2--|-----0--0-----0--0--0--0--|


 E E E E E E E E   E E E E E E E E
--------------------------|--------------------------|
--------------------------|--------------------------|
--5--------7--------------|--3-----3--5--5--5--------|
-----0--0-----0--0--0--0--|-----3--------------3--2--|


 E E E E E E E E   E E E E E E E E
--------------------------|--------------------------|
--------------0--2--------|--2-----------------------|
--------------------------|-----------3--------------|
--0--0--0--0--------3--2--|-----0--0-----0--0--0--0--|


 E E E E E E E E   E E E E E E E E
--------------------------|--------------------------|
--------------------------|--------------------------|
--5--------7--------5-----|--3--------5--5--5--------|
-----0--0-----0--0-----0--|-----3--0-----------3--0--|


 E E E E E E E E   E E E E E E E E
--------------------------|--------------------------|
--------------0--2--5--4--|--2-----------------------|
-----7--------------------|-----------3--------------|
--0-----0--0--------------|-----0--0-----0--0--0--0--|


 E E E E E E E E   E E E E E E E E   Q  E S S S S Q.
--------------------------|--------------------------|-------------------------|
--------------------------|--------------------------|-------------------------|
--5--------7--------5-----|--3--------5--5--5--------|----------7-7-7-7--------|
-----0--0-----0--0-----0--|-----3--0-----------3--0--|--L----L-----------------|


 E E E E E E S E S  E E E E E E S E S
---------------------------|---------------------------|
---------------------------|---------------------------|
---------------------------|---------------------------|
--0--------------0----0----|--0--------------0----0----|


 E E E E E E S E S  E E E E E E S E S
---------------------------|---------------------------|
---------------------------|---------------------------|
---------------------------|---------------------------|
--0--------------0----0----|--0--------------0----0----|


 E E E E E E S E S  E E E E E E S E S
---------------------------|---------------------------|
---------------------------|---------------------------|
---------------------------|---------------------------|
--0--------------0----0----|--0--------------0----0----|


 E E E E E E E E   Q  E E E E E E
--------------------------|-------------------------|
--------------------------|-------------------------|
-----------------------5--|--L----5--6--6--6--6--6--|
--0--------------0--------|-------------------------|


 E S S E E E E E E   E E E E E E E E   Q.   Q.   E E
---------------------------|--------------------------|----------------------|
---------------------------|--------------------------|----------------------|
---------------------------|--------------------------|--3------5---------7--|
--0--0-0-0--0--0--0--0--0--|--0--0--0--0--0--0--0--0--|----------------------|


 E E E E E E E E   E E E E E E E E
--------------------------|--------------------------|
--------------------5--4--|--------------------------|
--L-----------5--7--------|--------------------------|
-----0--0--0--------------|--0--0--0--0--0--0--0--0--|


 E E E E E E E E   Q.   Q.   E E   Q  E E E E E E
--------------------------|----------------------|-------------------------|
--------------------------|----------------------|-------------------------|
--------------------------|--3------5---------7--|--L----------------------|
--0--0--0--0--0--0--0--0--|----------------------|-------7--7--7--5--3--2--|


 E S S E E E E E E   E E E E E E E E   Q.   Q.   E E
---------------------------|--------------------------|----------------------|
---------------------------|--------------------------|----------------------|
---------------------------|--------------------------|--3------5---------7--|
--0--0-0-0--0--0--0--0--0--|--0--0--0--0--0--0--0--0--|----------------------|


 E E E E E E E E   E E E E E E E E
--------------------------|--------------------------|
--------------------5--4--|--------------------------|
--L-----------5--7--------|--------------------------|
-----0--0--0--------------|--0--0--0--0--0--0--0--0--|


 E E E E E E E E   Q.   Q.   E E   Q  E E E E E E
--------------------------|----------------------|-------------------------|
--------------------------|----------------------|-------------------------|
--------------------------|--3------5---------7--|--L----------------------|
--0--0--0--0--0--0--0--0--|----------------------|-------7--7--7--5--3--2--|


 E E E E E E E E   E E E E E E E E
--------------------------|--------------------------|
--------------------------|--------------------------|
--------------------------|--------------------------|
--0--0--0--0--0--0--0--0--|--0--0--0--0--0--0--0--0--|


 E E E E E E E E   E E E E E E E E
--------------------------|--------------------------|
--------------------------|--------------------------|
--------------------------|--------------------------|
--0--0--0--0--0--0--0--0--|--0--0--0--0--0--0--0--0--|


 E E E E E E E E   E E E E E E E E
--------------------------|--------------------------|
--------------------------|--------------------------|
--------------------------|--------------------------|
--0--0--0--0--0--0--0--0--|--0--0--0--0--0--0--0--0--|


 E E E E E E E E   E E E E E E E E
--------------------------|--------------------------|
--------------------------|--------------------------|
--------------------------|--------------------------|
--0--0--0--0--0--0--0--0--|--0--0--0--0--0--0--0--0--|


 E E E E E E E E   E E E E E E E E
--------------------------|--------------------------|
--------------------------|--------------------------|
--------------------------|--------------------------|
--0--0--0--0--0--0--0--0--|--0--0--0--0--0--0--0--0--|


 E E E E E E E E   E E E E H
--------------------------|-----------------------||
--------------------------|-----------------------||
--------------------------|-----------------------||
--0--0--0--0--0--0--0--0--|--0--0--0--0-----------||



Duration 🏷Legend
---------------
W - whole
H - half
Q - quarter
E - 8th
S - 16th
T - 32nd
X - 64th
. - note dotted
|-n-| - n-tuplets


Tablature 🏷Legend
----------------
L - tied note
x - dead note
g - grace note
(n) - ghost note
> - accentuded note
NH - natural harmonic
AH - artificial harmonic
TH - tapped harmonic
SH - semi harmonic
PH - pitch harmonic
h - hammer on
p - pull off
b - bend
br - bendRelease
pb - preBend
pbr - preBendRelease
brb - bendReleaseBend
\n/ - tremolo bar dip
\n - tremolo bar dive
-/n - tremolo bar Release up
/n\ - tremolo bar inverted dip
/n - tremolo bar return
-\n - tremolo bar Release down
S - shift slide
s - legato slide
/ - slide into from below or out of upwards
\ - slide into from above or out of downwards
~ - vibrato
W - wide vibrato
tr - trill
TP - tremolo picking
T - tapping
S - slap
P - pop
< - fade in
^ - brush up
v - brush down

Almost there ...

Sign in to get your own page with links to favourite songs and more. You are just one click away...

Login with Facebook Login with Google