Ordinary Day by Great Big Sea

Ordinary Day bass tab by Great Big Sea

Bass tabs

  • Tuning: Standard tuning
  • Difficulty: Beginner
Intro
G--------------------------------
D----------1~--------------1~----
A--------------------------------
E--1~-------------1~-------------


Verse
G----------------------------------------------------------------------------------
D----------1~--------------1~-----------------1~-----------------------------------
A---------------------------------------------------------------3-------3--1--0----
E--1~-------------1~------------------1~----------------1--------------------------

G-------------------------------------------------------------------------------
D--------------------3----------------------------------------------------------
A------3---------1-----1----------3--------------1-----0----------------5--3----
E--1------1--------------------1------1--------------------------3--------------


Chorus
G---------------------------------------------------------------------------------
D--3--2-----------------3----------5----------------------------------------------
A----------5--3---1----------3---------------------3--1--0------3--1--0-----------
E-----------------------------------------------1----------------------------3----

G---------------------------------------
D----------------7---------3-------5----
A-------3--5----------1-------3---------
E--1------------------------------------


Break
G--------------------------------
D----------1~--------------1~----
A--------------------------------
E--1~-------------1~-------------


Verse 2
G---------------------------------------------------------------
D-------------------------------------------------------5--2----
A---[----3---------1--0----]--------------3--------3------------
E---[1-------1------------3]-(x3)----1------1-------------------

G-----------------------------------------------------------------------------
D---3----3--------------------------------------------------------------------
A--------------3------1--0---------------3----------------1----0---------3----
E------------------------------3-------1------1----------------------3--------


*Repeat Chorus
*Repeat Break
*Repeat Chorus
*Repeat Break


Verse 3
G----------------------------------------------------------
D--------------------------------3--3----------------------
A-------------3-------1~----------------3---1--0-----------
E---1---1---------------------------------------------3----

G----------------------------------------------------------------
D---------------------------------3---3--------------------2-----
A----------3-----1--1--3-----------------3------3---3------------
E--1--1----------------------------------------------------------

G----------------------------------------------------------------------------3/5----
D---3--3----------------------------------------------------------------------------
A------------3----1---0---------------3--------------1------0-----------------------
E---------------------------3-------1------1------------------------3---------------


Final Chorus
G---------------------------------------------------------------------------2----
D--3--2-----------------3----------5-------------------------------2--5----------
A----------5--3---1----------3--------------------3--1--0------3-----------------
E---------------------------------------------1----------------------------------

G-------------------------------------
D--3--2-----------------3--------5----
A----------5--3----1--------3---------
E-------------------------------------

G--------------------------------------------------------------------------------
D----------------7--------3------------------------------------------------------
A------3---5----------1--------3-----------------3---1---0------3--1--0----------
E--1----------------------------------3-------1-----------------------------3----

G----------------------------------------
D-------------------7--------3------5----
A-------3----5-----------1------3--------
E--1-------------------------------------


Outro
G-------------------------------------------------------
D------------1~----------------1~-----------------------
A-------------------------------------------------------
E--1~---------------1~----------------1~----------1~----

Find guitar tabs and chords

A B C D E F G H I J K L M N O P Q R S T U V W X Y Z #