Log in

One click and you are in

Login with Facebook Login with Google

Why sign up and log in

Guitar Tabs Explorer
Graveworm tabs for Threnody

Guitar tabs

NOTE:
I take no credit for the creation of this tab. I never wrote it or composed it. Im
posting it up here so that everyone can find it on the site.

The tuning is BEADF#B (Five half tone steps down)
|--------------------------0------------|
|-----3--------3--------3----3------3---|
|------------------------------0---0----|
|-----4--------4--------4--------4------|
|---2--------2--------2-----------------|
|-0--------0--------0-----------------0-|

|------------------------8----7---|
|-/7----5----0---/7-7---------7---|
|---------------------------------|
|---------------------------------|
|---------------------------------|
|--0--0----0---0--0---0----0----0-|

|-----------0----------------------0-------------|
|-0-0---1-----1-----1/3--0-0---1-----1-----1/3---|
|---------------2----------------------2---------|
|------------------------------------------------|
|-0---0---0-------0------0---0---0-------0-------|
|------------------------------------------------|
                                                     |1.           |2.
|-------0------------------------0----------------|----12*------|---12*----|
|-0-0------3-------3-----3-3--3----3--------------|-7*-----12*--|-0----12*-|
|------------0-------4---------------0---0--------|-------------|----------|
|--------------4-----------------------4----------|-------------|----------|
|-2---2----------2-------3----5------------5-5/7--|-------------|----------|
|------------------------------------------------0|-------------|----------|

Alternative

|-----------0---------------------0---------------------12*-|
|-0-0---3-----3-----------3-3--3----3----------------7*-----|
|---------------0---0-----------------0---0-----------------|
|-----------------4---------------------4-------------------|
|-2---2---2-----------2---3----5------------5-5/7-----------|
|-------------------------------------------------0---------|

|7---------------7----------------7---------------7----------------5----------------5-------|
|--8---8-----8-----8---8---7-8------7---7-----7-----7---7-----7------5---5-----5------5---0-|
|----0---0-----0-----0---0-0-0--------------------------------------------------------------|
|-------------------------------------7---7-----7-----7---7-----------5---5------------5---5|
|7---------7-----7---------7-7--0-6---------6-----6---------6----0-5---------5----0-4-------|
|-------------------------------------------------------------------------------------------|

|--7---------------7----------------7---------------7----------------5----------------5-------3----|
|----8---8-----8-----8---8-8-8-8------7---7-----7-----7---7-----7------5---5-----5------5-------3--|
|------0---0-----0-----0-0-0-0-0-------------------------------------------------------------------|
|---------------------------------------7---7-----7-----7---7-----------5---5------------5---------|
|--7---------7-----7-----7-7-7-7--0-6---------6-----6---------6----0-5---------5----0-4-----4-3----|
|0----------------------------------------------------------------------------------------------3-2|

(The timing in this part is pretty fucked. It's better to use the following as a
on which chords to play and to figure the timing out by yourself)
|-0-0-0---0---0-------0---0---0-0-------0---0---0-0---0---0---0-0-------|
|-0-0-0---0---0-------0---0---0-0-------0---0---0-0---0---0---0-0-------|
|-----------------------------------------------------------------------|
|-----------------------------------------------------------------------|
|-3---3-3---3---3-3/5---5---5-------5/7---7---7-----7---7---7-----7-7/3-|
|-----------------------------------------------------------------------|

|---0---0---0-0------0---0---0-0-------0---0---0-0---0---0---0-|
|---0---0---0-0------0---0---0-0-------0---0---0-0---0---0---0-|
|--------------------------------------------------------------|
|--------------------------------------------------------------|
|-3---3---3------3/5---5---5-------5/7---7---7-----7---7---7---|
|--------------------------------------------------------------|

|-----0---0---3-0-----0---0---5-0-----0---0---7-0---0---0---7-0-|
|-----0---0---3-0-----0---0---5-0-----0---0---7-0---0---0---7-0-|
|---------------------------------------------------------------|
|---------------------------------------------------------------|
|-0-3---3---3-----3/5---5---5-----5/7---7---7-----7---7---7-----|
|---------------------------------------------------------------|

|---0---0---3-0-----0---0---5-0-----0---0---7-0---0---0---7-0-|
|---0---0---3-0-----0---0---5-0-----0---0---7-0---0---0---7-0-|
|-------------------------------------------------------------|
|-------------------------------------------------------------|
|-3---3---3-----3/5---5---5-----5/7---7---7-----7---7---7-----|
|-------------------------------------------------------------|

|---0---0---3-0---0---0---5-0---0---0---7-0---0---0---7-0-|
|---0---0---3-0---0---0---5-0---0---0---7-0---0---0---7-0-|
|---------------------------------------------------------|
|---------------------------------------------------------|
|-3---3---3-----0h2-2---2-----0---0---0-----0---0---0-----|
|---------------------------------------------------------|

|---0---0---3-0-----0---0---5-0------0--------2----------0---------0-|
|---0---0---3-0-----0---0---5-0----0---0----0---0----0h1---1--1/3--0-|
|------------------------------------------------------------------0-|
|------------------------------------------------------------------2-|
|-3---3---3-----3/5---5---5----------------------------------------2-|

ⓘ Guitar tab for 'Threnody' by Graveworm, a gothic metal band formed in 1992 from Brunico, Italy

Almost there ...

Sign in to get your own page with links to favourite songs and more. You are just one click away...

Login with Facebook Login with Google