Log in

One click and you are in

Login with Facebook Login with Google

Why sign up and log in

Guitar Tabs Explorer
Grave Digger tabs for House of horror

Guitar tabs

House Of Horror
By Grave Digger


From album "Symphony Of Death" (1994)

Transcribed by Teemu Haapanen
Submutted to GTE by: Hugo

 Intro Riff (4x)
|------------------------------------------------------------|
|*----------------------------------------------------------*|
|--5------7---5------5------7---5------5------7---5----4--2--|
|--5------7---5------5------7---5------5------7---5----5--3--|
|*---0000---0---0000---0000---0---0000---0000---0---00------*|
|------------------------------------------------------------|
     ....   .   ....   ....   .   ....   ....   .   ..


 Riff 1
|---------------------------------|
|---------------------------------|
|-5----7---5-(5)--5----8---7-(7)--|
|-5----7---5-(5)--5----8---7-(7)--|
|---00---0----------00---0--------|
|---------------------------------|
    ..   .          ..   .


 Verse Riff 1 (4x)
|------------------------------------------------------------|
|*----------------------------------------------------------*|
|--5------7---5------5------7---5------5------7---5----4--2--|
|--5------7---5------5------7---5------5------7---5----5--3--|
|*---0000---0---0000---0000---0---0000---0000---0---00------*|
|------------------------------------------------------------|
     ....   .   ....   ....   .   ....   ....   .   ..


 Verse Riff 2
|-----------------------------------------------------------------------------|
|-----------------------------------------------------------------------------|
|-----------------------------------------------------------------------------|
|-7------7------7----8------8------8----7------7------7----5------5------5----|
|-5-5555-5-5555-5-55-5-5555-5-5555-5-55-5-5555-5-5555-5-55-3-3333-3-3333-3-33-|
|-----------------------------------------------------------------------------|
    ....   ....   ..   ....   ....   ..   ....   ....   ..   ....   ....   ..


|----------------------------------------------------------------|
|----------------------------------------------------------------|
|----------------------------------------------------------------|
|-7------7------7----8------8------8----5------5------5----3-----|
|-5-5555-5-5555-5-55-5-5555-5-5555-5-55-3-3333-3-3333-3-33-1--3--|
|-------------------------------------------------------------1--|
    ....   ....   ..   ....   ....   ..   ....   ....   ..


 Chorus Riff
|-----------------------------------------------------------|
|-----------------------------------------------------------|
|-5----7---5----5----7---5----5----7---5---8---7---5---4----|
|-5----7---5----5----7---5----5----7---5---8---7---5---5----|
|---00---0---00---00---0---00---00---0---0---0---0---0---00-|
|-----------------------------------------------------------|
    ..   .   ..   ..   .   ..   ..   .   .   .   .   .   ..


|------------------------------------------------|
|------------------------------------------------|
|-5----7---5----5----7---5----5----7---5---4--2--|
|-5----7---5----5----7---5----5----7---5---5--3--|
|---00---0---00---00---0---00---00---0---0-------|
|------------------------------------------------|
    ..   .   ..   ..   .   ..   ..   .   .


 Riff 2 (7x)           Then
|---------------------|-------|
|*-------------------*|-------|
|--5------7---5-------|-4--2--|
|--5------7---5-------|-5--3--|
|*---0000---0---0000-*|-------|
|---------------------|-------|
     ....   .   ....


 Verse Riff 1 (4x)

 Verse Riff 2

 Chorus Riff (2x)

 Riff 1 (2x)


 Solo Riff (2x)
|-------------------------------------------------------------|
|*------------------------------------------------------------|
|-------------------------------------------------------------|
|-------------------------------------------------------------|
|*-5----7---5----5----7---5----5----7---5---8---7---5---4---5-|
|--3-00---0-3-00-3-00-5-0-3-00-3-00-5-0-3-0-6-0-5-0-3-0-2-0-3-|
     ..   .   ..   ..   .   ..   ..   .   .   .   .   .   .


|------------------------------------------------|
|-----------------------------------------------*|
|------------------------------------------------|
|------------------------------------------------|
|-5----7---5----5----7---5----5----7---5---5--3-*|
|-3-00-5-0-3-00-3-00-5-0-3-00-3-00-5-0-3-0-3--1--|
    ..   .   ..   ..   .   ..   ..   .   .


 Chorus Riff
|-----------------------------------------------------------|
|-----------------------------------------------------------|
|-5----7---5----5----7---5----5----7---5---8---7---5---4----|
|-5----7---5----5----7---5----5----7---5---8---7---5---5----|
|---00---0---00---00---0---00---00---0---0---0---0---0---00-|
|-----------------------------------------------------------|
    ..   .   ..   ..   .   ..   ..   .   .   .   .   .   ..

                                            (1st)   (2nd)
|------------------------------------------|-------|------------------------------|
|------------------------------------------|-------|------------------------------|
|-5----7---5----5----7---5----5----7---5---|-4--2--|------------------------------|
|-5----7---5----5----7---5----5----7---5---|-5--3--|-8-7-5-4-88-7-5-4-88-7-5-4-22-|
|---00---0---00---00---0---00---00---0---0-|-------|-6-5-3-2-66-5-3-2-66-5-3-2-00-|
|------------------------------------------|-------|------------------------------|
    ..   .   ..   ..   .   ..   ..   .   .



  . = palm mute
(5) = ghost note

Almost there ...

Sign in to get your own page with links to favourite songs and more. You are just one click away...

Login with Facebook Login with Google