Log in

One click and you are in

Login with Facebook Login with Google

Why sign up and log in

Guitar Tabs Explorer
Natalie Grant bass tabs for Your great name

Bass tabs

Tuning: EADG

***IMPORTANT NOTE***
Listen carefully through the Chorus, 2nd Verse, and Bridge. These are the basis of notes played. However,
the bassist is using alot of fill notes in key. I will tab these out in the future, but until then, just
kind of feel it out.
INTRO - No Bass

1st Verse - Bass Comes In Lightly Half Way Through
G|---------------------------------------------------------------------------|
D|--/2r----------------------------------------------------------------------|
A|-------5-/12-7-------------------------------------------------------------|
E|---------------------------------------------------------------------------|

1st Chorus
G|---------------------------------------------------------------------------|
D|---------------------------------------------------------------------------|
A|-5-5-5-5--12-12-12-12--7-7-7-7--9999---5-5-5-5-12-12-12-12-9-9-9-9-7-7-7-7-|
E|---------------------------------------------------------------------------|

Interlude
G|---------------------------------------------------------------------------|
D|-----------------------------7h-6------------------------------------------|
A|-5-5-5-5-5--------7-7-7-7h-9------7----------------------------------------|
E|------------5-5-5----------------------------------------------------------|


Verse
G|---------------------------------------------------------------------------|
D|---------------------------------------------------------------------------|
A|---------5-5-5-5----------7-7-7-7------------------------------------------|
E|-2-2-2-2----------5-5-5-5--------------------------------------------------|

Chorus x3, then...
G|---------------------------------------------------------------------------|
D|---------------------------------------------------------------------------|
A|-5-5-5-5---------7-7-7-7-9-9-9-9-------------------------------------------|
E|---------5-5-5-5-----------------------------------------------------------|


G|---------------------------------------------------------------------------|
D|---------------------------------------------------------------------------|
A|--5-5-5-5---------7-7-7-7---5-5-5-5----------7-7-7-7-----------------------|
E|----------5-5-5-5--------------------5-5-5-5-------------------------------|


Bridge
G|---------------------------------------------------------------------------|
D|---------------------------------------------------------------------------|
A|--7-7-7-7-9-9-9-9-5-5-5-5-7-7-7-7------------------------------------------|
E|---------------------------------------------------------------------------|


Chorus


| / slide up
| \ slide down
| h hammer-on
| p pull-off
| ~ vibrato
| + harmonic
| x Mute note

Almost there ...

Sign in to get your own page with links to favourite songs and more. You are just one click away...

Login with Facebook Login with Google