Log in

One click and you are in

Login with Facebook Login with Google

Why sign up and log in

Guitar Tabs Explorer
Natalie Grant bass tabs for I will not be moved

I Will Not Be Moved bass tab by Natalie Grant

Natalie Grant bass tabs for I will not be moved

Bass tabs

I Will Not Be Moved - Natalie Grant
Bass
Drop D tuning

Intro
|------| |------------------------------------------------------------|
|------| |------------------------------------------------------------|
|------| |---------2x8------------------------------------2x8---------|
|-REST-| |-6x8-2x8-----1-1-0-1--0-1-4-6-6-6-6-6-6-5-3-2x8-----1-1-0-1-|
Verse 1
|------| |-----------------------------------------------------|
|------| |-----------------------------------------------------|
|------| |-------------------------------------2x8-------------|
|-REST-| |-6-6-6-6-6-6-6-5-6x8-4x8-1x8-6x8-2x8-----1-LET RING!-|


Chorus pt.1
|-------------------------------------------------------------------------------|
|-------------------------------------------------------------------------------|
|-------------2-2-----------------2x8------------------------------------2x8----|
|-6-6-4-6-6-6-----2-2-1-2-2-2-2-4-----1-1-0-1--0-1-4-6-6-6-6-6-6-5-3-2x8-----1x8|


Chorus pt.2
|------------------------------------------|
|------------------------------------------|
|-4-4-4-4-4-4-4-4-4------------------------|
|-------------------2-2-2-2-2-2-2-2-4*MUTE-|

Preverse
|----------------------------------------|
|----------------------------------------|
|---------------------2x8----------------|
|-6-6-6-6-6-6-5-3-2x8-----1-1-0-1--0-1-4-|

Verse 2
|-----------------|  |-------------------------------------------------|
|-----------------|  |-------------------------------------------------|
|---------2x8-----|  |-------------------------4x8---------2x8---------|
|-6x8-2x8-----1x8-|x2 |-6-6-6-6-6-6-6-5-6x8-4x8-----6x8-2x8-----1-1-0-1-|


Chorus pt.1


Chorus pt.3
|---------------------------------------|
|---------------------------------------|
|-4-4-4-4-4-4-4-4-4---------------------|
|-------------------2-2-2-2-2-2-2-2-4x8-|


Bridge
|-----------------------------------------------------------------------------------|
|-----------------------------------------------------------------------------------|
|-4x8---------------------------------2-4x8-----------------------------------------|
|-----2-2-2-2-2-2-2-4-6x8-4-4-2-4-2-4-------6x8-2-2-2-2-1-2/14-14\-2-2/14-14-14-14\-|

|------| |--------------------|
|------| |--------------------|
|------| |--------------------|
|-REST-| |-6x18-4x8-1x12-MUTE-|
     Come in with drums

Chorus pt.1


Chorus pt.4
|---------------------------------------------|
|---------------------------------------------|
|-4-4-4-4-4-4-4-4-4---------------------------|
|-------------------2-2-2-2-2-2-2-2-1-1-1/13v-|


Outro
|-----------------------------------------------------------------------------|
|------------------1--2-------------------------------------------------------|
|---------2-2-2-4------------------------------------------2x8----------------|
|-6x8-2x8---------------1-1-0-1--0-1-4-6-6-6-6-6-6-5-3-2x8-----1-1-1-LET RING-|

Thanks for reading my tab! It is pretty close to 100% correct. Contact me at

Almost there ...

Sign in to get your own page with links to favourite songs and more. You are just one click away...

Login with Facebook Login with Google