Log in

One click and you are in

Login with Facebook Login with Google

Why sign up and log in

Guitar Tabs Explorer
Grandmaster Flash And The Furious Five bass tabs for White lines

White Lines bass tab by Grandmaster Flash And The Furious Five

Grandmaster Flash And The Furious Five bass tabs for White lines

Bass tabs

-------------------------------------------------------------------------------
			   White Lines - Grandmaster Flash
-------------------------------------------------------------------------------


Tuning: Standard

dont expect the trumpet bit to be DEAD on its hard to hear and im no miracle worker.

The vocal chorus at the intro.

G|-------------------------------------------------------------|
D|-----9-----12------------------------------------------------|
A|-10-----12---------------------------------------------------|
E|-------------------------------------------------------------|

G|-------------------------------------------------------------|
D|-------------------------------------------------------------|
A|-------------------------------------------------------------|
E|-33333333-33333333-33333333--33333333------------------------|


Main Riff
G|-----------------------|-------------------------------------------|
D|-----------------------|-------------------------------------------|
A|-0-3--0-3--0-3--0-3--0-|-0-3--0-3--0-3--0-3--030-303--030-303------|
E|-----------------------|-------------------------------------------|

The Trumpet line: now this is HARD to nail: the last bit is played
very quickly, and you dont neseccarily have to pluck the notes:
 you can just hammer on from nowhere. its actually easier to use
your thumb for the lower notes.

G--------------------------------------------------------------------|
D-----5--3---3----3h5--3---3-------5--3---3---3h5p3------------------|
A----------5---5---------5---5----------5---5--------5-3/1-----------|
E-3------------------------------3--------------------------3-1-3----|

G--------------------------------------------------------------------|
D-----5--3---3----3-5-3--3-5-------5--3---3---3-5p3------------------|
A----------5---5--------5---------------5---5--------5-4-3-----------|

Almost there ...

Sign in to get your own page with links to favourite songs and more. You are just one click away...

Login with Facebook Login with Google