Log in

One click and you are in

Login with Facebook Login with Google

Why sign up and log in

Guitar Tabs Explorer
Ariana Grande bass tabs for The light is coming

The Light Is Coming bass tab by Ariana Grande

Ariana Grande bass tabs for The light is coming

Bass tabs

Tuning: Standard (E A D G)

♫ Chorus:

G|--------------------------------------------------------------------------------|
D|--------------------------------------------------------------------------------|
A|--4--------------------4-------------------4------------------4-----------------|
E|-----4---5--5--5--5-------4---5--5--5--5------4---5--5--5--5-----4---5--5--5--5-|
Verse 1:

G|--------------------------------------------------------------------------------|
D|--------------------------------------------------------------------------------|
A|--4--------------------4-------------------4------------------4-----------------|
E|-----4---5--5--5--5-------4---5--5--5--5------4---5--5--5--5-----4---5--5--5--5-|

G|--------------------------------------------------------------------------------|
D|--------------------------------------------------------------------------------|
A|--4--------------------4-------------------4------------------4-----------------|
E|-----4---5--5--5--5-------4---5--5--5--5------4---5--5--5--5-----4---5--5--5--5-|

♫ Pre-Chorus:

G|--------------------------------------------------------------------------------|
D|--------------------------------------------------------------------------------|
A|--4--------------------4-------------------4------------------4-----------------|
E|-----4---5--5--5--5-------4---5--5--5--5------4---5--5--5--5-----4---5--5--5--5-|

G|--------------------------------------------------------------------------------|
D|--------------------------------------------------------------------------------|
A|--4--------------------4-------------------4------------------4-----------------|
E|-----4---5--5--5--5-------4---5--5--5--5------4---5--5--5--5-----4---5--5--5--5-|


♫ Chorus:

G|--------------------------------------------------------------------------------|
D|--------------------------------------------------------------------------------|
A|--4--------------------4-------------------4------------------4-----------------|
E|-----4---5--5--5--5-------4---5--5--5--5------4---5--5--5--5-----4---5--5--5--5-|

♫ Verse 2:

G|--------------------------------------------------------------------------------|
D|--------------------------------------------------------------------------------|
A|--4--------------------4-------------------4------------------4-----------------|
E|-----4---5--5--5--5-------4---5--5--5--5------4---5--5--5--5-----4---5--5--5--5-|

G|--------------------------------------------------------------------------------|
D|--------------------------------------------------------------------------------|
A|--4--------------------4-------------------4------------------4-----------------|
E|-----4---5--5--5--5-------4---5--5--5--5------4---5--5--5--5-----4---5--5--5--5-|


♫ Pre-Chorus:

G|--------------------------------------------------------------------------------|
D|--------------------------------------------------------------------------------|
A|--4--------------------4-------------------4------------------4-----------------|
E|-----4---5--5--5--5-------4---5--5--5--5------4---5--5--5--5-----4---5--5--5--5-|

G|--------------------------------------------------------------------------------|
D|--------------------------------------------------------------------------------|
A|--4--------------------4-------------------4------------------4-----------------|
E|-----4---5--5--5--5-------4---5--5--5--5------4---5--5--5--5-----4---5--5--5--5-|

Almost there ...

Sign in to get your own page with links to favourite songs and more. You are just one click away...

Login with Facebook Login with Google