Search tabs and chords

Search for song, artist or band

Log in

One click and you are in

Login with Facebook Login with Google

Why sign up and log in

Guitar Tabs Explorer
Ariana Grande guitar tabs for Thank u next acoustic

Guitar tabs

  • Capo on 6th
Tuning: Standard (E chord diagramEE A chord diagramAA D chord diagramDD G chord diagramGG B chord diagramBB E chord diagramEE)

Difficulty: Advanced

https://www.youtube.com/watch?v=u9K11ylsbIU

Intro:

e|--------------------------------------------------------------------------------------|
B|----(12)--------------(12)--(15)--(15)--(12)--------------(12)--(15)--(15)--(12)------|
G|----------(14)--------------------------------(14)--------------------------------(14)|
D|-----------------------------------------1----------1--1----1-------------------------|
A|------3---------3--3---3--------------------------------------------------------------|
E|------------------------------------------------------------------------------0-------|

e|----------------------------------------------------------------|
B|----------------------------------------------------------------|
G|--------(12h14)-------------------------------------------------|
D|----------------------------------------------------------------|
A|----------------------------------------------------------------|
E|--0--0------1---------------------------------------------------|


Verse 1:

e|----------------------------------------------------------------------------------------|
B|--1/3--3--3--3--1p0--0--------3--3--3--3--1p0-------------3--3--3--3--1p0--0------------|
G|---------------------0--------0----------------0h2--------2----------------0--2p0-------|
D|---------------------2--------2----------------1----1--1-------------------0------------|
A|---------------------3--3--3------------------------------------------------------------|
E|---------------------------------------------------------------------------0-------(0)--|

e|-----------------------------------------------------------------------------------------------|
B|--3--3--3--3--1p0---------------3--3--3/5p0-----0--------3--3--3--1p0-------0-----3--3--3--1p0-|
G|--0----------------0h2p0---------------------2--0--2-----0-------------0h2--2-----0------------|
D|--0------------------------------------------------2-------------------1----1--1---------------|
A|------------------------------------------------3-----3----------------------------------------|
E|-------------------1------1--1-----------------------------------------------------------------|

e|---------------------------------------------------------------------------------------|
B|--0------------------------------------------------------------------------------------|
G|--0--2p0-----0--0h2/4--2--0------------------------------------------------------------|
D|--0--------------------0--0------------------------------------------------------------|
A|---------------------------------------------------------------------------------------|
E|--0-------0------------1--1------------------------------------------------------------|

Pre-chorus:

e|---------------------------------------------------------------------------------------|
B|--0h3------------------------0h3---------------------0h3---------------------------0h3-|
G|--0----0----0h2---0h2--------0----0-----0h2--0h2-----0----0-----0h2--0h2-----------0---|
D|--0---------------0h2--------0---------------1-------0---------------0-------------0---|
A|----------x-------3----3--x----------x------------x----------x-------2----2-----x------|
E|----------x---------------x----------x------------x----------x-------0-------0--x------|

e|---------------------------------------------------------------------------------------|
B|------------------------3/5--3----3/5--0----------0h3-------------------------0h3------|
G|--0-----0h2--0h2-----------------------0h2--2-----0----0-----0h2--0h2/4/2-----0----0---|
D|--------------------------------------------------0---------------1-----------0--------|
A|-----x---------------x---------x-------3-------x----------x----------------x----------x|
E|-----x-------1----1--x---------x---------------x----------x----------------x----------x|

                                                      t   t  t  t  t
e|---------------------------------------------------------------------------------------|
B|-------0----------3/5--3-----3/5--0----------------------------------------------------|
G|--0h2--0h2--2---------------------0h2--2----------------4------------------------------|
D|-------0--------------------------0-------5--5h7/9--10-----7--5--7---------------------|
A|---------------x----------x------------------------------------------------------------|
E|-------0-------x----------x-------1----------------------------------------------------|


Chorus:

e|---------------------------------------------------------------------------------------|
B|-----------0---------------------------------------------------0-----------------------|
G|-----------0-----2--------0h2-----2--------2-----0h2-----------0--2--------0----9p7----|
D|-----7-----0-----2-------------1-----1-----1--1----------0--------0--------0h2---------|
A|--------------x--3--x--3--x-------------x--------x-------------x-----x-----x---------8-|
E|--8-----8--8--x-----x-----x-------------x--------x----0-----0--x--0--x--0--x-----------|

e|----------------------------------------------------------------------------------------|
B|--------------------------------------------------0-------------------------------------|
G|--7-----7----------0h2-----2--2-----0h2-----2-----2--2--------0h2-----------0--2-----0h2|
D|--9--9-----9--7p5--0h2-----2--2-----2----1-----1--1--1-----1--1-------0-----0--0-----0--|
A|--8----------------3----3--3--3--3--3-------------x-----x-----x-------------x--------x--|
E|--x------------------------x--------x-------------x-----x-----x----0-----0--x--0--0--x--|

e|---------------------------------------------------------------------------|
B|---------------------------------------------------------------------------|
G|--9p7-----7----------------------------------------------------------------|
D|----------9----------------------------------------------------------------|
A|-------8--8----------------------------------------------------------------|
E|----------x----------------------------------------------------------------|


Verse 2:

e|----------------------------------------------------------------------------------------|
B|--3--3--3--1p0--0-----------3--3--3--3--1p0--------------3--3--3--3--1p0--0-------------|
G|----------------0-----------0----------------0h2---------2----------------0--2p0--------|
D|----------------2-----------2----------------1----1--1--------------------0-------------|
A|-----------x----3--3--x--3--------------x-----------x----------x-----------------x------|
E|-----------x----------x-----------------x-----------x----------x----------0------x-(0)--|

e|----------------------------------------------------------------------------------------|
B|-3--3--3--3--1p0-----------------3--3--3--3--3--3--3/5----------------3--1p0------------|
G|-0-----------------0h2p0---------------------------0----2-----0h2-------------0h2-------|
D|-0-------------------------------------------------2/4--2-----2---------------1----1---1|
A|-------------x---------------------------x---------3/5--3--x--3----3--x---------------x-|
E|-------------x-----1------1-x-1----------x-----------------x----------x---------------x-|

e|----------------------------------------------------------------------------------------|
B|--3--3--3--1p0---0----------------------------------------------------------------------|
G|-----------------0--2p0--------0--0h2/4--2--0-------------------------------------------|
D|-----------------0-----------------------0--0-------------------------------------------|
A|----------x--------------x--------------------------------------------------------------|
E|----------x------0-------x--0------------1--1-------------------------------------------|


Pre-chorus:

e|---------------------------------------------------------------------------------------|
B|--0h3------------------------0h3---------------------0h3---------------------------0h3-|
G|--0----0----0h2---0h2--------0----0-----0h2--0h2-----0----0-----0h2--0h2-----------0---|
D|--0---------------0h2--------0---------------1-------0---------------0-------------0---|
A|----------x-------3----3--x----------x------------x----------x-------2----2-----x------|
E|----------x---------------x----------x------------x----------x-------0-------0--x------|

e|---------------------------------------------------------------------------------------|
B|------------------------3/5--3----3/5--0----------0h3-------------------------0h3------|
G|--0-----0h2--0h2-----------------------0h2--2-----0----0-----0----------------0----0---|
D|--------------------------------------------------0-------------5p4--4--------0--------|
A|-----x---------------x---------x-------3-------x----------x-----6-------x--6----------x|
E|-----x-------1----1--x---------x---------------x----------x-------------x-------------x|

                                                      t   t  t  t  t
e|---------------------------------------------------------------------------------------|
B|-------0----------3/5--3-----3/5--0----------------------------------------------------|
G|--0h2--0h2--2---------------------0h2--2----------------4------------------------------|
D|-------0--------------------------0-------5--5h7/9--10-----7--5--7---------------------|
A|---------------x----------x------------------------------------------------------------|
E|-------0-------x----------x-------1----------------------------------------------------|


Chorus:

e|--------------------------------------------------------------------------------0-----0|
B|-----------0---------------------------------------------------0-------------------3--3|
G|-----------0-----2--------0h2-----2--------2-----0h2-----------0--2--------0-----------|
D|-----7-----0-----2-------------1-----1-----1--1----------0--------0--------0h2---------|
A|--------------x--3--x--3--x-------------x--------x-------------x-----x-----x----------x|
E|--8-----8--8--x-----x-----x-------------x--------x----0-----0--x--0--x--0--x----1-----x|

e|-----0-----0--------------------0h2--2--------2-----------/4--0--0--------0------------|
B|--3-----3--3--3--3--0--------------------------------------------0--------0------------|
G|-----------------0--0-----2-------------0--------2---------------0--0--------2------0h2|
D|-----------------2--2-----2----------1-----1--1--1-----1---------------------0------0--|
A|-----------x-----3--3--x--3--3--x-------------x-----x-----x---------------x-----x---x--|
E|-----1-----x-----------x--------x-------------x-----x-----x------0-----0--x--0--x-0-x--|

e|----------------------------------------------------------------------------|
B|----------------------------------------------------------------------------|
G|--9p7----9p7--9p7-9---------------------------------------------------------|
D|-------------------0--------------------------------------------------------|
A|-------8-x---------x--------------------------------------------------------|
E|---------x---------x--------------------------------------------------------|


Post-chorus:

e|-----------------------------------------------------------------------------------------|
B|--3--------3--3--0-----------------3--3--0-----3-----------3--3--0----h1p0---------------|
G|--0--------0--------2--------2-----2--------2--2----------------------------2--9p7----9p7|
D|--2--2-----2--------2-----1-----1--1-----------1-----0-----------------------------------|
A|--3-----3--x--------3--x-----------x-----------x-----------x------------------------8-x--|
E|-----------x-----------x-----------x-----------x--0-----0--x--------------------------x--|

e|-----------------------------------------------------------------------------------------|
B|----------3--3--0--------------3--3--0--------------3--3--0--h1p0------------------------|
G|--9p7--9--0--------2-----2-----2--------2--------------------------2--9p7-----9p7-----9p7|
D|-------0--2-----------1-----1--1--------------0------------------------------------------|
A|-------x--3----------------------------------------------------------------8-------8-----|
E|-------x-----------------------------------0-----0---------------------------------------|

e|--------------------------------------------------------------------------------------------|
B|----------(12)--------------(12)--(15)--(15)--(12)--------------(12)--(15)--(15)--(12)------|
G|--9--7----------(14)--------------------------------(14)--------------------------------(14)|
D|-----------------------------------------------1----------1--1----1-------------------------|
A|------------3---------3--3---3--------------------------------------------------------------|
E|------------------------------------------------------------------------------------0-------|

e|----------------------------------------------------------------|
B|----------------------------------------------------------------|
G|--------(12h14)-------------------------------------------------|
D|----------------------------------------------------------------|
A|----------------------------------------------------------------|
E|--0--0------1---------------------------------------------------|


************************************

| h   Hammer-on
| p   Pull-off
| r   Release
| /   Slide up
| \   Slide down
| (n) Harmonic

************************************

Other versions of Thank U Next Acoustic

Thank u next ukuleleChords

Almost there ...

Sign in to get your own page with links to favourite songs and more. You are just one click away...

Login with Facebook Login with Google