Log in

One click and you are in

Login with Facebook Login with Google

Why sign up and log in

Guitar Tabs Explorer
Ariana Grande bass tabs for Greedy (Ver. 2)

Bass tabs

Ariana Grande - Greedy

Standard tuning (EADG)

h - Hammer-on
/ - Slide up
\ - Slide down
Intro

G|---------------------------------|---------------------------------|
D|---------------------------------|---------------------------------|
A|---------------------------------|---------------------------------|
E|---------------------------------|---------------------------------|
  1 e + a 2 e + a 3 e + a 4 e + a  1 e + a 2 e + a 3 e + a 4 e + a

G|---------------------------------|
D|---------------------------------|
A|-------------------------4---5---|
E|---------------------------------|
  1 e + a 2 e + a 3 e + a 4 e + a


Verse 1

G||----------------------------------|---------------------------------|
D||o---------------------------------|---------------------------------|
A||o-6-----6-------4h6---------------|-------------------------4---5---|
E||--------------------------6---5---|-4-----4-------2h4---------------|
   1 e + a 2 e + a 3 e + a 4 e + a  1 e + a 2 e + a 3 e + a 4 e + a

G|---------------------------------|----------------------------------||
D|---------------------------------|---------------------------------o||
A|-6-----6-------4h6---------------|-------------------------4---5---o|| x2
E|-------------------------6---5---|-4-----4-------2h4---4------------||
  1 e + a 2 e + a 3 e + a 4 e + a  1 e + a 2 e + a 3 e + a 4 e + a


Pre-Chorus

G|---------------------------------|---------------------------------|
D|---------------------------------|---------------------------------|
A|-6-------6-------6-------6----/--|-11------11------11--\---9---\---|
E|---------------------------------|---------------------------------|
  1 e + a 2 e + a 3 e + a 4 e + a  1 e + a 2 e + a 3 e + a 4 e + a

G|---------------------------------|---------------------------------|
D|---------------------------------|---------------------------------|
A|-6-------6-------6-------6----/--|-11--11--11--11--11------4---5---|
E|---------------------------------|---------------------------------|
  1 e + a 2 e + a 3 e + a 4 e + a  1 e + a 2 e + a 3 e + a 4 e + a


Chorus

G||----------------------------------|---------------------------------|
D||o---------------------------------|---------------------------------|
A||o-6-----6-------4h6---------------|-------------------------4---5---|
E||--------------------------6---5---|-4-----4-------2h4---------------|
   1 e + a 2 e + a 3 e + a 4 e + a  1 e + a 2 e + a 3 e + a 4 e + a

G|---------------------------------|----------------------------------||
D|---------------------------------|---------------------------------o||
A|-6-----6-------4h6---------------|-------------------------4---5---o|| x4
E|-------------------------6---5---|-4-----4-------2h4---4------------||
  1 e + a 2 e + a 3 e + a 4 e + a  1 e + a 2 e + a 3 e + a 4 e + a


Verse 2

G|---------------------------------|---------------------------------|
D|---------------------------------|---------------------------------|
A|---------------------------------|-------------------------4---5---|
E|-------------------------6---5---|-4-----4-------2h4---------------|
  1 e + a 2 e + a 3 e + a 4 e + a  1 e + a 2 e + a 3 e + a 4 e + a

G|---------------------------------|---------------------------------|
D|---------------------------------|---------------------------------|
A|-6-----6-------4h6---------------|-------------------------4---5---|
E|-------------------------6---5---|-4-----4-------2h4---4-----------|
  1 e + a 2 e + a 3 e + a 4 e + a  1 e + a 2 e + a 3 e + a 4 e + a

G|---------------------------------|---------------------------------|
D|---------------------------------|---------------------------------|
A|-6-----6-------4h6---------------|-------------------------4---5---|
E|-------------------------6---5---|-4-----4-------2h4---------------|
  1 e + a 2 e + a 3 e + a 4 e + a  1 e + a 2 e + a 3 e + a 4 e + a

G|---------------------------------|---------------------------------|
D|---------------------------------|---------------------------------|
A|-6-----6-------4h6---------------|-------------------------4---5---|
E|-------------------------6---5---|-4-----4-------2h4---4-----------|
  1 e + a 2 e + a 3 e + a 4 e + a  1 e + a 2 e + a 3 e + a 4 e + a


Pre-Chorus

G|---------------------------------|---------------------------------|
D|---------------------------------|---------------------------------|
A|-6-------6-------6-------6----/--|-11------11------11--\---9---\---|
E|---------------------------------|---------------------------------|
  1 e + a 2 e + a 3 e + a 4 e + a  1 e + a 2 e + a 3 e + a 4 e + a

G|---------------------------------|---------------------------------|
D|---------------------------------|---------------------------------|
A|-6-------6-------6-------6----/--|-11--11--11--11--11------4---5---|
E|---------------------------------|---------------------------------|
  1 e + a 2 e + a 3 e + a 4 e + a  1 e + a 2 e + a 3 e + a 4 e + a


Chorus

G||----------------------------------|---------------------------------|
D||o---------------------------------|---------------------------------|
A||o-6-----6-------4h6---------------|-------------------------4---5---|
E||--------------------------6---5---|-4-----4-------2h4---------------|
   1 e + a 2 e + a 3 e + a 4 e + a  1 e + a 2 e + a 3 e + a 4 e + a

G|---------------------------------|----------------------------------||
D|---------------------------------|---------------------------------o||
A|-6-----6-------4h6---------------|-------------------------4---5---o|| x4
E|-------------------------6---5---|-4-----4-------2h4---4------------||
  1 e + a 2 e + a 3 e + a 4 e + a  1 e + a 2 e + a 3 e + a 4 e + a


Bridge

G|---------------------------------|---------------------------------|
D|---------------------------------|---------------------------------|
A|---------------------------------|---------------------------------| x6
E|---------------------------------|---------------------------------|
  1 e + a 2 e + a 3 e + a 4 e + a  1 e + a 2 e + a 3 e + a 4 e + a

G|---------------------------------|
D|---------------------------------|
A|---------------------------------|
E|---------------------------------|
  1 e + a 2 e + a 3 e + a 4 e + a


Chorus

G||----------------------------------|---------------------------------|
D||o---------------------------------|---------------------------------|
A||o-8-----8-------6h8---------------|-------------------------6---7---|
E||--------------------------8---7---|-6-----6-------4h6---------------|
   1 e + a 2 e + a 3 e + a 4 e + a  1 e + a 2 e + a 3 e + a 4 e + a

G|---------------------------------|----------------------------------||
D|---------------------------------|---------------------------------o||
A|-8-----8-------6h8---------------|-------------------------6---7---o|| x6
E|-------------------------8---7---|-6-----6-------4h6---6------------||
  1 e + a 2 e + a 3 e + a 4 e + a  1 e + a 2 e + a 3 e + a 4 e + a

Other versions of Greedy

GreedyBass tabs

↓ Add and view comments below ↓

What do you think about this song and these tabs?

Add your comments, questions, rant or a thumbs up below.

Almost there ...

Sign in to get your own page with links to favourite songs and more. You are just one click away...

Login with Facebook Login with Google