Search tabs and chords

Search for song, artist or band

Log in

One click and you are in

Login with Facebook Login with Google

Why sign up and log in

Guitar Tabs Explorer
Ariana Grande guitar tabs for 7 rings

Guitar tabs

Intro:

e|--------------------------------------------------------------------------------------------------|
B|-----------------------------------------------------*15*------*15*-------*17*--------------------|
G|-------*14*------*14*---------------------------------------------------------------*13*----------|
D|--------------------------*15*------*15*-*14*---*12*------*12*-------*14*------*14*---------------|
A|--*12*------*12*----------------------------------------------------------------------------------|
E|----------------------*13*-----*13*---------------------------------------------------------------|

Verse:
                                                                                 t  t t t t t t

e|-------------------------------0-0----------------------------------------------------------------|
B|------5-5---------------0----------0-----------0-------3/5\3---------1/3p1------------------------|
G|------5---4---------2-2--2---2-------2-2---2-2---2---2-------2/4p0-0------------------4-5-7-9\7---|
D|--3/7-7-----7-7\2-2------2---3-----------2-------2---0---------------------3--2h3-5-7-----------6-|
A|--0----------------------0------------------------------------------------------------------------|
E|---------------------------3-1-------------------1-0--------------------------0-------------------|

e|-------------------------------0-0----------------------------------------------------------------|
B|------5-5---------------0----------0-----------0-------3/5\3---------1/3p1-1h3-3/5-3/5-3/5-3/5-3/5|
G|------5---4---------2-2--2---2-------2-2---2-2---2---2-------2/4p0-0-----------0------------------|
D|--3/7-7-----7-7\2-2------2---3-----------2-------2---0-------------------------0------------------|
A|--0----------------------0------------------------------------------------------------------------|
E|---------------------------3-1-------------------1-0---------------------------0------------------|

e|--------------------------------------------------------------------------------------------------|
B|--3/5-3/5-5\3p1---1h3-----------------------------------------------------------------------------|
G|----------------2---------------------------------------------------------------------------------|
D|--------------------------------------------------------------------------------------------------|
A|--------------------------------------------------------------------------------------------------|
E|--------------------------------------------------------------------------------------------------|

Pre-Chorus:

e|--------------------------------------------------------------------------------------------------|
B|--------------------------------------------------------------------------------------------------|
G|----0h2---0----------0h2----0------------0h2--0----------0h2--0-----------0h2-----0--------0h2----|
D|--2-2---------2-----2-------2---2------2-3--------2-----2-----3---2-----2-0---0-----2----2--------|
A|----0---0---x---x--0----0-0---x---x--0----------x---x-----------x---x-----------5---x--5-------5--|
E|------------x---x-------------x---x------1---1--x---x--1----1-1-x---x--1------------x-------------|

e|--------------------------------------------------------------------------------------------------|
B|--------------------------------------------------------------------------------------------------|
G|--0------------0h2---0------------0h2---0---------------------------------------------------------|
D|--0---2------2-0---------2------2-------0----2----------------------------------------------------|
A|--5-x---x--5-----------x---x---------------x---x--------------------------------------------------|
E|----x---x------0---0---x---x--0-------0-0--x---x--------------------------------------------------|

Chorus:

        o             o       o                         o       o

e|--------------------------------------------------------------------------------------------------|
B|------0h1----0-----------------------------0h1---0------------------------------------------------|
G|------2----------2------0h2----0-----------2--------2------0h2--0-----------0h2----0--------0h2---|
D|----2-2---------------2--------2----2--------------------2------2---2-----2----------2----2-------|
A|------0---0----x----0----------0--x---x--0--------x---------------x---x-----5----5---x--5---------|
E|--0------------x------------------x---x----1---1--x----1--------1-x---x--1-----------x------------|
.
e|--------------------------------------------------------------------------------------------------|
B|-------------------0h1---0------------------------------------------------------------------------|
G|-----0-------------0---------2--------0h2---0-----------------------------------------------------|
D|-----2----2------2-0----------------2-------2----2------2-----------------------------------------|
A|--5--5--x---x--5-----------x---x---------------x---x----------------------------------------------|
E|--------x---x------0---0---x---x--0-------0-0--x---x--0-------------------------------------------|

Verse 2:

e|-------------------------------0-0----------------------------------------------------------------|
B|------5-5---------------0----------0-----------0-------3/5\3---------1/3p1-1h3--0-0---0-0---0-0---|
G|------5---4---------2-2--2---2-------2-2---2-2---2---2-------2/4p0-0----------2-1---1-----1-----1-|
D|--3/7-7-----7-7\2-2------2---3-----------2-------2---0--------------------------2-----------------|
A|--0----------------------0------------------------------------------------------2-----------------|
E|---------------------------3-1-------------------1-0----------------------------------------------|

e|----------------------------------------0-0-----------------------------------------------0/3p0---|
B|--0h1p0--------5-5---------------0----------0-----------0-------3/5\3---------1/3p1-1h3---0----2/3|
G|---------------5---4---------2-2--2---2-------2-2---2-2---2---2-------2/4p0-0-----------2-0-------|
D|--------2--3/7-7-----7-7\2-2------2---3-----------2-------2---0-----------------------------------|
A|-----------0----------------------0---------------------------------------------------------------|
E|------------------------------------3-1-------------------1-0-----------------------------0-------|

e|--------------------------------------------------------------------------------------------------|
B|--3-3-1-1h3-3-1-1h3p1-----------------------------------------------------------------------------|
G|----------------------2---------------------------------------------------------------------------|
D|--------------------------------------------------------------------------------------------------|
A|--------------------------------------------------------------------------------------------------|
E|--------------------------------------------------------------------------------------------------|

Pre-Chorus:

e|--------------------------------------------------------------------------------------------------|
B|--------------------------------------------------------------------------------------------------|
G|----0h2---0----------0h2----0------------0h2--0----------0h2--0-----------0h2-----0--------0h2----|
D|--2-2---------2-----2-------2---2------2-3--------2-----2-----3---2-----2-0---0-----2----2--------|
A|----0---0---x---x--0----0-0---x---x--0----------x---x-----------x---x-----------5---x--5-------5--|
E|------------x---x-------------x---x------1---1--x---x--1----1-1-x---x--1------------x-------------|

e|--------------------------------------------------------------------------------------------------|
B|--------------------------------------------------------------------------------------------------|
G|--0------------0h2---0------------0h2---0---------------------------------------------------------|
D|--0---2------2-0---------2------2-------0----2----------------------------------------------------|
A|--5-x---x--5-----------x---x---------------x---x--------------------------------------------------|
E|----x---x------0---0---x---x--0-------0-0--x---x--------------------------------------------------|

Chorus:

        o             o       o                         o       o

e|--------------------------------------------------------------------------------------------------|
B|------0h1----0-----------------------------0h1---0------------------------------------------------|
G|------2----------2------0h2----0-----------2--------2------0h2--0-----------0h2----0--------0h2---|
D|----2-2---------------2--------2----2--------------------2------2---2-----2----------2----2-------|
A|------0---0----x----0----------0--x---x--0--------x---------------x---x-----5----5---x--5---------|
E|--0------------x------------------x---x----1---1--x----1--------1-x---x--1-----------x------------|
.
e|--------------------------------------------------------------------------------------------------|
B|-------------------0h1---0------------------------------------------------------------------------|
G|-----0-------------0---------2--------0h2---0-----------------------------------------------------|
D|-----2----2------2-0----------------2-------2----2------2-----------------------------------------|
A|--5--5--x---x--5-----------x---x---------------x---x----------------------------------------------|
E|--------x---x------0---0---x---x--0-------0-0--x---x--0-------------------------------------------|

Verse 3:


e|----------------------------------------------------------------0-0--------------------------0-0--|
B|--------------------0h1-1-1---1-1--1h3-3-3-------0h1-1-1---1-1--1--------0-------------0-----0----|
G|----1/5-5-5---5-5\--2-------2------2-------0-0---2-------2------2----2-2-----------2-2-------0----|
D|--2-3/7-----7-------2--------------0-----------0-0--------------0----------2-2-2-2-------2-2------|
A|--------------------0-----------------------------------------------x----------5------------------|
E|-----------------------------------1-------------1------------------x------------------------0----|

e|--2/3p1p0-------------------0-0-------------------------------------------------------------------|
B|----------2/3p1-----1h3p1-------------------------------------------------------------------------|
G|----------------2-2-------2-----------------------------------------------------------------------|
D|--------------------------------------------------------------------------------------------------|
A|----------------------------x--x------------------------------------------------------------------|
E|----------------------------x--x------------------------------------------------------------------|



Chorus:

e|--------------------------------------------------------------------------------------------------|
B|--------------------------------------------------------------------------------------------------|
G|----0h2---0----------0h2----0------------0h2--0----------0h2--0-----------0h2-----0--------0h2----|
D|--2-2---------2-----2-------2---2------2-3--------2-----2-----3---2-----2-0---0-----2----2--------|
A|----0---0---x---x--0----0-0---x---x--0----------x---x-----------x---x-----------5---x--5-------5--|
E|------------x---x-------------x---x------1---1--x---x--1----1-1-x---x--1------------x-------------|

e|--------------------------------------------------------------------------------------------------|
B|--------------------------------------------------------------------------------------------------|
G|--0------------0h2---0------------0h2---0---------------------------------------------------------|
D|--0---2------2-0---------2------2-------0----2-----2----------------------------------------------|
A|--5-x---x--5-----------x---x---------------x---x--------------------------------------------------|
E|----x---x------0---0---x---x--0-------0-0--x---x--0-----------------------------------------------|
Outro:

e|--------------------------------------------------------------------------------------------------|
B|-----------------------------------------------------*15*------*15*-------*17*--------------------|
G|-------*14*------*14*---------------------------------------------------------------*13*----------|
D|--------------------------*15*------*15*-*14*---*12*------*12*-------*14*------*14*---------------|
A|--*12*------*12*----------------------------------------------------------------------------------|
E|----------------------*13*-----*13*---------------------------------------------------------------|

Other versions of 7 Rings

7 ringsChords
7 rings (Ver. 2)Chords
7 rings remixChords

Almost there ...

Sign in to get your own page with links to favourite songs and more. You are just one click away...

Login with Facebook Login with Google