Guitar Tabs Explorer
Ariana Grande guitar chords for 7 rings

7 Rings chords


4.5 / 5 [2 votes]

7 Rings chords by Ariana Grande

"7 Rings" is a song American singer and actress Ariana Grande has recorded for her fifth studio album, "Thank U, next". It was the second single to be released from that album.

Guitar chords with lyrics

Print
  • Capo on 2nd
Tuning: Standard (E chord diagramEE A chord diagramAA D chord diagramDD G chord diagramGG B chord diagramBB E chord diagramEE)

Key: C#m chord diagramC#mC#m

Difficulty: Novice

Ariana Grande: "7 Rings"



Intro:
  Bm chord diagramBmBm                       G chord diagramGG                        Em7 chord diagramEm7Em7                      F#7 chord diagramF#7F#7
e|------7-----------7-----|------3-----------3-2---|------0-----------0-----|------2-----------------|
B|------------------------|------------------------|------------------------|------------------------|
G|4-----------4-----------|0-----------0-----------|------------------------|------------------3-----|
D|------------------------|------------------------|2-----------2----------3|4-----------4-----------|
A|------------------------|------------------------|------------------------|------------------------|
E|------------------------|------------------------|------------------------|------------------------|
  1 + + 2 + + 3 + + 4 + + etc.

Yeah

Verse 1:
Bm chord diagramBmBm                                      A chord diagramAA
Breakfast at Tiffany's and bottles of bubbles
G chord diagramGG                                           F#m chord diagramF#mF#m
Girls with tattoos who like getting in trouble
Em7 chord diagramEm7Em7
Lashes and diamonds, ATM machines
F#7 chord diagramF#7F#7
Buy myself all of my favorite things (Yeah)
Bm chord diagramBmBm                                           A chord diagramAA
Been through some bad shit, I should be a sad bitch
G chord diagramGG                                       F#m chord diagramF#mF#m
Who woulda thought it'd turn me to a savage?
Em7 chord diagramEm7Em7
Rather be tied up with cuffs and not strings
F#7 chord diagramF#7F#7
Write my own checks like I write what I sing, yeah (Yeah)


Pre-Chorus 1:
   Bm chord diagramBmBm                                   A chord diagramAA
My wrist, stop watchin', my neck is flossin'
     G chord diagramGG                            F#m chord diagramF#mF#m
Make big deposits, my gloss is poppin'
    Em7 chord diagramEm7Em7
You like my hair? Gee, thanks, just bought it
  F#7 chord diagramF#7F#7
I see it, I like it, I want it, I got it (Yeah)


Chorus:
  Bm chord diagramBmBm                                 A chord diagramAA
I want it, I got it, I want it, I got it
  G chord diagramGG                                   F#m chord diagramF#mF#m
I want it, I got it, I want it, I got it
    Em7 chord diagramEm7Em7
You like my hair? Gee, thanks, just bought it
  F#7 chord diagramF#7F#7
I see it, I like it, I want it, I got it (Yeah)


Verse 2:
Bm chord diagramBmBm                                     A chord diagramAA
Wearing a ring, but ain't gon' be no "Mrs."
G chord diagramGG                                      F#m chord diagramF#mF#m
Buy matching diamonds for six of my bitches
Em7 chord diagramEm7Em7
I'd rather spoil all my friends with my riches
F#7 chord diagramF#7F#7
Think retail therapy my new addiction
Bm chord diagramBmBm                                     A chord diagramAA
Whoever said money can't solve your problems?
G chord diagramGG                                        F#m chord diagramF#mF#m
Must not have had enough money to solve 'em
Em7 chord diagramEm7Em7
They say "Which one?" I say "Nah, I want all of 'em"
F#7 chord diagramF#7F#7
Happiness is the same price as red-bottoms


Pre-Chorus 2:
   Bm chord diagramBmBm                               A chord diagramAA
My smile is beamin', my skin is gleamin'
    G chord diagramGG                                F#m chord diagramF#mF#m
The way it shine, I know you've seen it (You've seen it)
  Em7 chord diagramEm7Em7
I bought a crib just for the closet
    Em7 chord diagramEm7Em7#77
Both his and hers, I want it, I got it, yeah


Chorus:
  Bm chord diagramBmBm                                 A chord diagramAA
I want it, I got it, I want it, I got it
  G chord diagramGG                                   F#m chord diagramF#mF#m
I want it, I got it, I want it, I got it (Baby)
    Em chord diagramEmEm
You like my hair? Gee, thanks, just bought it (Oh yeah)
  F#7 chord diagramF#7F#7
I see it, I like it, I want it, I got it (Yeah)


Bridge:
Bm chord diagramBmBm
I got my receipts, be lookin' like phone numbers

If it ain't money, then wrong number
G chord diagramGG
Black card is my business card

The way it be settin' the tone for me
Em7 chord diagramEm7Em7
I don't mean to brag, but I be like,

"Put it in the bag," yeah
F#7 chord diagramF#7F#7
When you see them racks

They stacked up like my ass, yeah
Bm chord diagramBmBm
Shoot, go from the store to the booth
                                          G chord diagramGG
Make it all back in one loop, give me the loot

Never mind, I got the juice

Nothing but net when we shoot
           Em7 chord diagramEm7Em7
Look at my neck, look at my neck

Ain't got enough money to pay me respect
         F#7 chord diagramF#7F#7
Ain't no budget when I'm on the set

If I like it, then that's what I get, yeah


Chorus:
  Bm chord diagramBmBm                                 A chord diagramAA
I want it, I got it, I want it, I got it (Yeah)
  G chord diagramGG                                   F#m chord diagramF#mF#m
I want it, I got it, I want it, I got it (Oh yeah, yeah)
    Em7 chord diagramEm7Em7
You like my hair? Gee, thanks, just bought it
  F#7 chord diagramF#7F#7
I see it, I like it, I want it, I got it (Yeah)



ADDITIONAL PARTS

Second Melody:
  Bm chord diagramBmBm                         A chord diagramAA         G chord diagramGG                            F#m chord diagramF#mF#m
e|10-------------------------10-9-----|7--------------------------7-5------|
B|12-------------------------12-10----|8--------------------------8-7------|
G|------------------------------------|------------------------------------|
D|------------------------------------|------------------------------------|
A|------------------------------------|------------------------------------|
E|------------------------------------|------------------------------------|
  1  +  +  2  +  +  3  +  +  4  +  + etc.
  Em7 chord diagramEm7Em7                                  F#7 chord diagramF#7F#7
e|3--------------------------7--------|6-----------------------------------|
B|5--------------------------5--------|7-----------------------------------|
G|------------------------------------|------------------------------------|
D|------------------------------------|------------------------------------|
A|------------------------------------|------------------------------------|
E||-----------------------------------|------------------------------------|


Bridge Melody:
  Bm chord diagramBmBm                       G chord diagramGG                        Em7 chord diagramEm7Em7                      F#7 chord diagramF#7F#7
e|---10-9--7-----10-9--7--|---10-9--7-----10-9--7--|---10-9--7-----10-9--7--|---10-9--7-----10-9--7--|
B|7-----------7-----------|7-----------7-----------|7-----------7-----------|7-----------7-----------|
G|------------------------|------------------------|------------------------|------------------------|
D|------------------------|------------------------|------------------------|------------------------|
A|------------------------|------------------------|------------------------|------------------------|
E|------------------------|------------------------|------------------------|------------------------|
  1  +  2  +  3  +  4  + etc.

Other versions of 7 Rings

- 7 rings (Ver. 2)Chords
- 7 ringsTabs

Comment this song and these guitar chords

Do you have corrections, comments on the guitar chords, thoughts about the song or a message to the author? Write them below.