Log in

One click and you are in

Login with Facebook Login with Google

Why sign up and log in

Guitar Tabs Explorer
Grady bass tabs for All in

Bass tabs

Tuning: Standard (E A D G)


Verse 1:

G|--------------------------------|
D|--------------------------------|
A|--------22-2-20-33-3-30---------|
E|33-3-3-3----------------33------|

G|--------------------------------|
D|--------------------------------|
A|--------22-2-20-33-3-30-------20|
E|33-3-3-3----------------33-3-3--|

G|--------------------------------|
D|--------------------------------|
A|--------22-2-20-33-3-30-------20|
E|33-3-3-3----------------33-3-3--|

G|--------------------------------|
D|--------------------------------|
A|--------22-2-20-33-3-30---------|
E|33-3-3-3----------------33------|


Chorus:

G|--------------------------------|
D|--------------------------------|
A|--------22-2-20-33-3-30-------20|
E|33-3-3-3----------------33-3-3--|

G|--------------------------------|
D|--------------------------------|
A|--------22-2-20-33-3-30-------20|
E|33-3-3-3----------------33-3-3--|

G|--------------------------------|
D|--------------------------------|
A|--------22-2-20-33-3-30-------20|
E|33-3-3-3----------------33-3-3--|

G|--------------------------------|
D|--------------------------------|
A|--------22-2-20-33-3-30---------|
E|33-3-3-3------------------------|

Verse 2:

G|--------------------------------|
D|--------------------------------|
A|--------22-2-20-33-3-30-------20|
E|33-3-3-3----------------33-3-3--|

G|--------------------------------|
D|--------------------------------|
A|--------22-2-20-33-3-30---------|
E|33-3-3-3----------------33------|

G|--------------------------------|
D|--------------------------------|
A|--------22-2-20-33-3-30-------20|
E|33-3-3-3----------------33-3-3--|

G|--------------------------------|
D|--------------------------------|
A|--------22-2-20-33-3-30---------|
E|33-3-3-3------------------------|


Chorus:

G|--------------------------------|
D|--------------------------------|
A|--------22-2-20-33-3-30-------20|
E|33-3-3-3----------------33-3-3--|

G|--------------------------------|
D|--------------------------------|
A|--------22-2-20-33-3-30---------|
E|33-3-3-3------------------------|

G|--------------------------------|
D|--------------------------------|
A|--------22-2-20-33-3-30-------20|
E|33-3-3-3----------------33-3-3--|

G|--------------------------------|
D|--------------------------------|
A|--------22-2-20-33-3-30---------|
E|33-3-3-3------------------------|


Bridge:
Rest


Chorus:

G|--------------------------------|
D|--------------------------------|
A|--------22-2-20-33-3-30-------20|
E|33-3-3-3----------------33-3-3--|

G|--------------------------------|
D|--------------------------------|
A|--------22-2-20-33-3-30---------|
E|33-3-3-3------------------------|

G|--------------------------------|
D|--------------------------------|
A|--------22-2-20-33-3-30-------20|
E|33-3-3-3----------------33-3-3--|

G|--------------------------------|
D|--------------------------------|
A|--------22-2-20-33-3-30-------20|
E|33-3-3-3----------------33-3-3--|

G|--------------------------------|
D|--------------------------------|
A|--------22-2-20-33-3-30---------|
E|33-3-3-3------------------------|

Almost there ...

Sign in to get your own page with links to favourite songs and more. You are just one click away...

Login with Facebook Login with Google