Log in

One click and you are in

Login with Facebook Login with Google

Why sign up and log in

Guitar Tabs Explorer
Grace Potter And The Nocturnals bass tabs for Paris ooh la la

Paris Ooh La La bass tab by Grace Potter And The Nocturnals

Grace Potter And The Nocturnals bass tabs for Paris ooh la la

Bass tabs

Intro:

G|--------------------------------|
D|--------------------------------|
A|--------------------------------|
E|-REST---------------------------| x2

G|--------------------------------|
D|--------------------------------|
A|--------------------------------|
E|-2-2---2-2---5-5---5-5--7h8-7h8-| x2

Verse 1:

G|--------------------------------|
D|--------------------------------|
A|--------------------------------|
E|-2-2---2-2---5-5---5-5--7h8-7h8-| x4


Pre-Chorus:

G|----------------|
D|----------------|
A|----------------|
E|-7---5---2--0h2-| x3

G|-------------------------------|
D|-------------------------------|
A|-------------------------------|
E|-7-7-7-7-7-7-7-7-9-9-9-9-9-9-9-|


Chorus:

G|--------------------------------|
D|--------------------------------|
A|--------------------------------|
E|-2-2---2-2---5-5---5-5--7h8-7h8-| x4


Verse 2:

G|--------------------------------|
D|--------------------------------|
A|--------------------------------|
E|-2-2---2-2---5-5---5-5--7h8-7h8-| x4


Pre-Chorus:

G|-----------------|
D|-----------------|
A|-----------------|
E|-7---5----2--0h2-| x3

G|-------------------------------|
D|-------------------------------|
A|-------------------------------|
E|-7-7-7-7-7-7-7-7-9-9-9-9-9-9-9-|


Chorus:

G|--------------------------------|
D|--------------------------------|
A|--------------------------------|
E|-2-2---2-2---5-5---5-5--7h8-7h8-| x4


Bridge:

G|-----------------------------------------------------------------|
D|-----------------------------------------------------------------|
A|-----------------------------------------------------------------|
E|-2-2-2-2-2-2-2-2-2-2-2-2-2-2-2-2-5-5-5-5-5-5-5-5-4-4-4-4-4-4-4-4-| x4


Pre-Chorus:

G|-----------------|
D|-----------------|
A|-----------------|
E|-7---5----2--0h2-| x3

G|-------------------------------|
D|-------------------------------|
A|-------------------------------|
E|-7-7-7-7-7-7-7-7-9-9-9-9-9-9-9-|


☠☠☠☠☠☠☠☠☠☠☠☠☠☠☠☠☠☠☠☠☠☠☠☠☠☠☠☠☠☠☠☠☠☠☠☠

| h Hammer-on


☠☠☠☠☠☠☠☠☠☠☠☠☠☠☠☠☠☠☠☠☠☠☠☠☠☠☠☠☠☠☠☠☠☠☠☠

Almost there ...

Sign in to get your own page with links to favourite songs and more. You are just one click away...

Login with Facebook Login with Google