Log in

One click and you are in

Login with Facebook Login with Google

Why sign up and log in

Guitar Tabs Explorer
Gotye bass tabs for The only way

Bass tabs

|-------7-x-------------------7-x-------------|
|---x-7----7x--------------x7----7x-----------|
|-5----------55---------5-----------5---------|
|--------------x-8--8-----------------8--88---|


I think one fill runs a bit like:

|----------------------|
|----7-/12-------------|
|-5---------12---------|
|--------------10-8888-|


cant help you out with the quiet part, sorry
BUT
I recommend you check out some tabs for the same song by KARNIVOOL, then move that up
fret, or semitone

Almost there ...

Sign in to get your own page with links to favourite songs and more. You are just one click away...

Login with Facebook Login with Google